Stairway to heaven

(/) Slide Up  (\) Slide Down  (h) Hammer On  (p) Pull Off  (b) Bend (r) Release (v) Vibrato


E|-----------5--7--------7--8--------8--2--------2--0-------------0---------------
B|--------5--------5-----------5-----------3-----------1-----1-------1------------
G|-----5--------------5-----------5-----------2-----------2-------------2--0------
D|--7-----------6-----------5-----------0-----------3----------------------2------
A|-------------------------------------------------------------------------0------
E|--------------------------------------------------------------------------------



E|------------------------------
B|------------------------------
G|----2----2--------------------
D|----2----2-----------------7--
A|----0----0----0/8--7----7-----
E|------------------------------



E|--
B|--
G|--
D|--
A|--
E|--



E|--
B|--
G|--
D|--
A|--
E|--
http://www.guitartabcreator.com
Guitar Tab Creator is intended to store guitar tab created through the tool. It currently does not support in-line text editing. Any text you place in here will be lost. If you need to comment on your tab, please use the "Tab Notes" section located below.