The C major scale (beginner)

(/) Slide Up  (\) Slide Down  (h) Hammer On  (p) Pull Off  (b) Bend (r) Release (v) Vibrato

(W|WW) Whole (H|HH) Half (Q|QQ) Quarter (E|EE) 8th (S|SS) 16th (T|TT) 32nd (X|XX) 64th

t: Q Q Q Q Q Q Q Q W
E|--------------|--------------|---------------|--------------|
B|--------------|--------0--1--|----1----------|--------------|
G|--------------|--0--2--------|----0----------|--------------|
D|-----0--2--3--|--------------|----2----------|--------------|
A|--3-----------|--------------|----3----------|--------------|
E|--------------|--------------|---------------|--------------|
s: ^ v ^ v ^ v ^ v ^

t: Q Q Q Q Q Q Q Q W
E|--------------|--------------|---------------|--------------|
B|--1--0--------|--------------|----1----------|--------------|
G|--------2--0--|--------------|----0----------|--------------|
D|--------------|--3--2--0-----|----2----------|--------------|
A|--------------|-----------3--|----3----------|--------------|
E|--------------|--------------|---------------|--------------|
s: ^ v ^ v ^ v ^ v ^

t: Q Q Q Q Q Q Q Q Q Q Q Q Q Q Q Q
E|--------------|--------------|--------------|--------------|
B|--------------|--------0--1--|--0-----------|-----------1--|
G|--------------|--0--2--------|-----2--0-----|-----------0--|
D|-----0--2--3--|--------------|-----------3--|--2--0-----2--|
A|--3-----------|--------------|--------------|--------3--3--|
E|--------------|--------------|--------------|--------------|
s: ^ v ^ ^ ^ v ^ v ^ v ^ v ^ v ^ ^

http://www.guitartabcreator.com
Guitar Tab Creator is intended to store guitar tab created through the tool. It currently does not support in-line text editing. Any text you place in here will be lost. If you need to comment on your tab, please use the "Tab Notes" section located below.