Who do you think I was - bro

(/) Slide Up  (\) Slide Down  (h) Hammer On  (p) Pull Off  (b) Bend (r) Release (v) Vibrato

E|----------------------------------------
B|----------------------------------------
G|--------2h4--2--------------------------
D|----------------4--2--------------------
A|----------------------4--3--2-----------
E|--2--2-------------------------5--2--0--

F#moll-lick



E|----------------------------------------
B|----------------------------------------
G|--------2h4--2--------------------------
D|----------------4--2--------------------
A|----------------------5--1--------------
E|--3--3----------------------5--3--2--0--

Gdur-lick



E|--5--
B|--8--
G|--7--
D|--5--
A|--7--
E|--0--

Emolladd9
http://www.guitartabcreator.com
Guitar Tab Creator is intended to store guitar tab created through the tool. It currently does not support in-line text editing. Any text you place in here will be lost. If you need to comment on your tab, please use the "Tab Notes" section located below.