The Thrill is gone - licks

(/) Slide Up  (\) Slide Down  (h) Hammer On  (p) Pull Off  (b) Bend (r) Release (v) Vibrato
E|-----7------
B|--7-----12--
G|------------
D|------------
A|------------
E|------------



E|--------------------
B|--------------------
G|--------7-----------
D|--9--9-----9--7--9--
A|--------------------
E|--------------------



E|------------------
B|--------10--------
G|--9/11------11\9--
D|------------------
A|------------------
E|------------------



E|-------------------------
B|-------------------------
G|-------------------------
D|-------------------------
A|-------------------7--9--
E|--7--7--10--7--10--------



E|------------
B|-------9\7--
G|------------
D|--7/9-------
A|------------
E|------------
http://www.guitartabcreator.com
Guitar Tab Creator is intended to store guitar tab created through the tool. It currently does not support in-line text editing. Any text you place in here will be lost. If you need to comment on your tab, please use the "Tab Notes" section located below.