Mefirsol By: Chris Lambert

(/) Slide Up  (\) Slide Down  (h) Hammer On  (p) Pull Off  (b) Bend (r) Release (v) Vibrato
E|-----3-5/7p5------7-10/12p9-------10-14p10----------10-14/15p12----------12-15p12----------12---
B|-3-5---------8/10-----------12/14----------11----11-------------13----13----------13----13------
G|----------------------------------------------12-------------------12----------------12---------
D|------------------------------------------------------------------------------------------------
A|------------------------------------------------------------------------------------------------
E|------------------------------------------------------------------------------------------------



E|-15p12/10-14p10----------10-14/15p12----------12-15p12----------------------------12-15p12/10-
B|----------------11----11-------------13----13----------13----------------------13-------------
G|-------------------12-------------------12----------------12----------------12----------------
D|-------------------------------------------------------------14----------14-------------------
A|----------------------------------------------------------------15----15----------------------
E|-------------------------------------------------------------------12-------------------------



E|------------------------------------
B|--11-------------------------12/14--
G|------12---------11--12--14---------
D|----------13/14---------------------
A|------------------------------------
E|------------------------------------
http://www.guitartabcreator.com
Guitar Tab Creator is intended to store guitar tab created through the tool. It currently does not support in-line text editing. Any text you place in here will be lost. If you need to comment on your tab, please use the "Tab Notes" section located below.