NICO Touches the Walls-Niwaka Ame Nimo Makezu

(/) Slide Up  (\) Slide Down  (h) Hammer On  (p) Pull Off  (b) Bend (r) Release (v) Vibrato

E|--6h8--6------------6h8--6------------6h8--6-----------
B|----------8--6--------------8--6--------------8--6--8--
G|----------------8v----------------8v-------------------
D|-------------------------------------------------------
A|-------------------------------------------------------
E|-------------------------------------------------------



E|--6h8--6------------6h8--6------------6h8--6--------------3--6--
B|----------8--6--------------8--6--------------8--6-----4--------
G|----------------8v----------------8v----------------5-----------
D|----------------------------------------------------------------
A|----------------------------------------------------------------
E|----------------------------------------------------------------
http://www.guitartabcreator.com
Guitar Tab Creator is intended to store guitar tab created through the tool. It currently does not support in-line text editing. Any text you place in here will be lost. If you need to comment on your tab, please use the "Tab Notes" section located below.