Composition 2

(/) Slide Up  (\) Slide Down  (h) Hammer On  (p) Pull Off  (b) Bend (r) Release (v) Vibrato

Capo 5

E|---------------------------------------------------------------------
B|---0-------0-------0-------0-------0-------0-------0-----0h1h3-3-1-0-
G|-------0-------0-------0-----2p0-------0-------0-------0-------------
D|-----2-------2-------2---------------0-------0-------0---------------
A|---------------------------------------------------------------------
E|-0-------0-------0-------2-------3-------3-------3-------------------



E|---------------------------------------------------------------------
B|---0-------0-------0-------0-------0-------0-------0-----0h1h3-3-1-0-
G|-------0-------0-------0-----2p0-------0-------0-------0-------------
D|-----2-------2-------2---------------0-------0-------0---------------
A|---------------------------------------------------------------------
E|-0-------0-------0-------2-------3-------3-------3-------------------



E|--------------------------------------------------------------------------------(0)~
B|---0-------0-------0-------0-------0-------0-------0-------0-------0-------0-----0~~
G|-------0-------0-------0-----2p0-------0-------0-------0-------0-------0-------0-2~~
D|-----2-------2-------2---------------0-------0-------0-------0-------0-------0---0~~
A|---------------------------------------------------------------------------------X--
E|-0-------0-------0-------2-------3-------3-------3-------3-------3-------3-------3~~



E|---------------------------------------------------------------------
B|---0-------0-------0-------0-------0-------0-------0-----0h1h3-3-1-0-
G|-------0-------0-------0-----2p0-------0-------0-------0-------------
D|-----2-------2-------2---------------0-------0-------0---------------
A|---------------------------------------------------------------------
E|-0-------0-------0-------2-------3-------3-------3-------------------



E|---------------------------------------------------------------------
B|---0-------0-------0-------0-------0-------0-------0-----0h1h3-3-1-0-
G|-------0-------0-------0-----2p0-------0-------0-------0-------------
D|-----2-------2-------2---------------0-------0-------0---------------
A|---------------------------------------------------------------------
E|-0-------0-------0-------2-------3-------3-------3-------------------



E|--------------------------------------------------------------------------------(0)~
B|---0-------0-------0-------0-------0-------0-------0-------0-------0-------0-----0~~
G|-------0-------0-------0-----2p0-------0-------0-------0-------0-------0-------0-2~~
D|-----2-------2-------2---------------0-------0-------0-------0-------0-------0---0~~
A|---------------------------------------------------------------------------------X--
E|-0-------0-------0-------2-------3-------3-------3-------3-------3-------3-------3~~



E|-----------------------------------------------------------------------------------------
B|---5-------5-------5-------7-------7-------7-------5-------5-------5-------7-------7-----
G|-------0-------0-------0-------0-------0-------0-------0-------0-------0-------0-------0-
D|-----0-------0-------0-------0-------0-------0-------0-------0-------0-------0-------0---
A|-3-------3-------3-------5-------5-------5-------3-------3-------3-------5-------5-------
E|-----------------------------------------------------------------------------------------



E|-------------------------------------------------------------------------------------------------
B|---8-------8-------7-------7-------5-------5-------5-------5-------5-------7-------8-------8-----
G|-------0-------0-------0-------0-------0-------0-------0-------0-------0-------0-------0-------0-
D|-----0-------0-------0-------0-------0-------0-------0-------0-------0-------0-------0-------0---
A|-7-------7-------5-------5-------3-------3-------3-------3-------3-------5-------7-------7-------
E|-------------------------------------------------------------------------------------------------



E|-----------------------------------------------------------------------------------------
B|---7-------7-------5-------5-------5-------3-------3-------3-------1-------1-------1-----
G|-------0-------0-------0-------0-------0-------0-------0-------0-------0-------0-------0-
D|-----0-------0-------0-------0-------0-------0-------0-------0-------0-------0-------0---
A|-5-------5-------3-------3-------3-------2-------2-------2-------0-------0-------0-------
E|-----------------------------------------------------------------------------------------



E|-------------------------------------------------------------------------(0)~
B|-----0-----------0-----------0-----------0-----------0-----------0--------0~~
G|-----------0-----------0-----------0-----------0-----------0-----------0--2~~
D|--------0-----------0-----------0-----------0-----------0-----------0-----0~~
A|--------------------------------------------------------------------------X--
E|--3-----------3-----------3-----------3-----------3-----------3-----------3~~


E|-----------------------------------------------------------------------------------------
B|---5-------5-------5-------7-------7-------7-------5-------5-------5-------7-------7-----
G|-------0-------0-------0-------0-------0-------0-------0-------0-------0-------0-------0-
D|-----0-------0-------0-------0-------0-------0-------0-------0-------0-------0-------0---
A|-3-------3-------3-------5-------5-------5-------3-------3-------3-------5-------5-------
E|-----------------------------------------------------------------------------------------



E|-------------------------------------------------------------------------------------------------
B|---8-------8-------7-------7-------5-------5-------5-------5-------5-------7-------8-------8-----
G|-------0-------0-------0-------0-------0-------0-------0-------0-------0-------0-------0-------0-
D|-----0-------0-------0-------0-------0-------0-------0-------0-------0-------0-------0-------0---
A|-7-------7-------5-------5-------3-------3-------3-------3-------3-------5-------7-------7-------
E|-------------------------------------------------------------------------------------------------



E|-----------------------------------------------------------------------------------------
B|---7-------7-------5-------5-------5-------3-------3-------3-------1-------1-------1-----
G|-------0-------0-------0-------0-------0-------0-------0-------0-------0-------0-------0-
D|-----0-------0-------0-------0-------0-------0-------0-------0-------0-------0-------0---
A|-5-------5-------3-------3-------3-------2-------2-------2-------0-------0-------0-------
E|-----------------------------------------------------------------------------------------



E|-------------------------------------------------------------------------(0)~
B|-----0-----------0-----------0-----------0-----------0-----------0--------0~~
G|-----------0-----------0-----------0-----------0-----------0-----------0--2~~
D|--------0-----------0-----------0-----------0-----------0-----------0-----0~~
A|--------------------------------------------------------------------------X--
E|--3-----------3-----------3-----------3-----------3-----------3-----------3~~



E|---------------------------------------------------------------------
B|---0-------0-------0-------0-------0-------0-------0-----0h1h3-3-1-0-
G|-------0-------0-------0-----2p0-------0-------0-------0-------------
D|-----2-------2-------2---------------0-------0-------0---------------
A|---------------------------------------------------------------------
E|-0-------0-------0-------2-------3-------3-------3-------------------



E|---------------------------------------------------------------------
B|---0-------0-------0-------0-------0-------0-------0-----0h1h3-3-1-0-
G|-------0-------0-------0-----2p0-------0-------0-------0-------------
D|-----2-------2-------2---------------0-------0-------0---------------
A|---------------------------------------------------------------------
E|-0-------0-------0-------2-------3-------3-------3-------------------



E|--------------------------------------------------------------------------------(0)~
B|---0-------0-------0-------0-------0-------0-------0-------0-------0-------0-----0~~
G|-------0-------0-------0-----2p0-------0-------0-------0-------0-------0-------0-2~~
D|-----2-------2-------2---------------0-------0-------0-------0-------0-------0---0~~
A|---------------------------------------------------------------------------------X--
E|-0-------0-------0-------2-------3-------3-------3-------3-------3-------3-------3~~



E|---------------------------------------------------------------------
B|---0-------0-------0-------0-------0-------0-------0-----0h1h3-3-1-0-
G|-------0-------0-------0-----2p0-------0-------0-------0-------------
D|-----2-------2-------2---------------0-------0-------0---------------
A|---------------------------------------------------------------------
E|-0-------0-------0-------2-------3-------3-------3-------------------



E|---------------------------------------------------------------------
B|---0-------0-------0-------0-------0-------0-------0-----0h1h3-3-1-0-
G|-------0-------0-------0-----2p0-------0-------0-------0-------------
D|-----2-------2-------2---------------0-------0-------0---------------
A|---------------------------------------------------------------------
E|-0-------0-------0-------2-------3-------3-------3-------------------



E|--------------------------------------------------------------------------------(0)~~~
B|---0-------0-------0-------0-------0-------0-------0-------0-------0-------0-----0~~~~
G|-------0-------0-------0-----2p0-------0-------0-------0-------0-------0---------2~~~~
D|-----2-------2-------2---------------0-------0-------0-------0-------0-------2p0-0~~~~
A|---------------------------------------------------------------------------------X----
E|-0-------0-------0-------2-------3-------3-------3-------3-------3-------3-------3~~~~

END.
Guitar Tab Creator is intended to store guitar tab created through the tool. It currently does not support in-line text editing. Any text you place in here will be lost. If you need to comment on your tab, please use the "Tab Notes" section located below.