Composition

(/) Slide Up  (\) Slide Down  (h) Hammer On  (p) Pull Off  (b) Bend (r) Release (v) Vibrato

Motif 1

v v~~~ v v~~~
d|-----12--12h11-\9~~~-----------------|
A|---------------------12--12\10p9~~~--|
E|-------------------------------------|
D|---------------------0~~~~~~~--------|
A|-------------------------------------|
D|--0~~~~~~~~~~~~~~~~~-0~~~~~~~~~~~~~--|


Motif 2

d|-------------------------------------|
A|--2~/4~~~4-4-4-4-4-4-4-4-4-4-4-4h5~~~|
E|-------------------------------------|
D|-------------------------------------|
A|--------(0)~~~~~~~~~(0)~~~~~~~~~~~~~~|
D|-----0~~~0-0-0-0-0-0-0-0-0-0-0-0~~~~~|
Guitar Tab Creator is intended to store guitar tab created through the tool. It currently does not support in-line text editing. Any text you place in here will be lost. If you need to comment on your tab, please use the "Tab Notes" section located below.