Chef'Special - Birds

(/) Slide Up  (\) Slide Down  (h) Hammer On  (p) Pull Off  (b) Bend (r) Release (v) Vibrato

E|--------------------------------|--------------------------|--------------------------------|----------------------
B|-----------------------5--------|---------10--10-----------|--------6--------------9--------|----------------------
G|--------6-----------------------|--------------------------|--------------------------------|--------6----7--6-----
D|--------------------6-----6-----|-----11----------11-------|-----6-----6--------9-----9-----|----------------------
A|-----7-----7-----4-----------4--|--9------------------9----|--5-----------5--7-----------7--|-----7----------------
E|--5-----------5-----------------|--------------------------|--------------------------------|--5----------------5--



E|--------------------------------|--------------------------|--------------------------------|---------------------------------
B|--7--------7--7--------7--------|--9--------9--9--------9--|--6--------6--6--------6--------|--10----------10--9--------9-----
G|--------7-----------7-----------|--------7-----------7-----|--------6-----------6-----------|----------11------------9--------
D|-----9-----------9--------------|-----9-----------9--------|-----6-----------6--------------|------11-------------9-----------
A|--------------------------------|--------------------------|--------------------------------|---------------------------------
E|--------------------------------|--------------------------|--------------------------------|---------------------------------



E|--------------------------------|--------------------------|--------------------------------|------------------------------
B|--7--------7--7--------7--------|--9--------9--9--------9--|--6--------6--6--------6--------|--10----------10--9--------9--
G|--------7-----------7-----------|--------9-----------9-----|--------6-----------6-----------|----------11------------9-----
D|-----7-----------7--------------|-----9-----------9--------|-----6-----------6--------------|------11-------------9--------
A|--------------------------------|--------------------------|--------------------------------|------------------------------
E|--------------------------------|--------------------------|--------------------------------|------------------------------
http://www.guitartabcreator.com
Guitar Tab Creator is intended to store guitar tab created through the tool. It currently does not support in-line text editing. Any text you place in here will be lost. If you need to comment on your tab, please use the "Tab Notes" section located below.