Mother

(/) Slide Up  (\) Slide Down  (h) Hammer On  (p) Pull Off  (b) Bend (r) Release (v) Vibrato
E|-----------------------------------------------------------
B|---------------------------------------13------------------
G|------14b16v--14b16v------14b16r14p12----------------------
D|--12-------------------------------------------------------
A|-------------------------------------------15--14--15------
E|-----------------------------------------------------------



E|---------------------------------------------
B|---------------------------------------------
G|-------5-----5\4-----------------------------
D|---------------------------------------------
A|--5/7-----7-------5--5------3--2--3--3b5--3--
E|---------------------------------------------



E|---------------------------------------------------------------
B|-----------------------------------------------13--------------
G|--------12------14b16v--14b16v----14b16r14p12------------------
D|--5/14------14-------------------------------------------------
A|---------------------------------------------------15--14--15--
E|---------------------------------------------------------------



E|--10--12b14--10v------8--10b12--8v----8--7--8--7------------------
B|--10------------------8---------------------------8---------------
G|--11------------------9------------------------------7--5\4--5/7--
D|------------------------------------------------------------------
A|------------------------------------------------------------------
E|------------------------------------------------------------------



E|-------------------------------------------------
B|-------------------------------13--------13/17v--
G|--12--12--12------14b16r14p12--------12----------
D|--12--12--12-------------------------------------
A|--10--10--10-------------------------------------
E|-------------------------------------------------



E|------15b17--15--12h13p12------------------
B|--13-----------------------13--------------
G|-------------------------------12----------
D|-----------------------------------15--14--
A|-------------------------------------------
E|-------------------------------------------



E|------------------15b17r15p13--15--15b17--15--
B|----------------------------------------------
G|----------12b14v------------------------------
D|--14--15--------------------------------------
A|----------------------------------------------
E|----------------------------------------------



E|--13v----13--12---------------------------------------------------------
B|-----------------15--13b15--13------------------------------------------
G|--------------------------------12--9--10v------12b14v--12----b--16r14--
D|------------------------------------------------------------------------
A|------------------------------------------------------------------------
E|------------------------------------------------------------------------



E|---------------------------------------------------------
B|---------------------------------------------------------
G|--9--10v----9/10--9--7--7/9--7--5h7p5--4v--------11b12v--
D|---------------------------------------------------------
A|---------------------------------------------------------
E|---------------------------------------------------------



E|----------------------------------------------------------------------------------
B|----------------------------------------------------------------------------------
G|--12r11p9--11v----9--11--11b12r11p9------------9--11v----11b12r11p9--12b14v--12v--
D|-------------------------------------12--10---------------------------------------
A|----------------------------------------------------------------------------------
E|----------------------------------------------------------------------------------



E|------------------
B|------------------
G|--11v--9--7b9r7v--
D|------------------
A|------------------
E|------------------
http://www.guitartabcreator.com
Guitar Tab Creator is intended to store guitar tab created through the tool. It currently does not support in-line text editing. Any text you place in here will be lost. If you need to comment on your tab, please use the "Tab Notes" section located below.