Fake it

(/) Slide Up  (\) Slide Down  (h) Hammer On  (p) Pull Off  (b) Bend (r) Release (v) Vibrato
E|-----------------------------------------|--------------------------------
B|-----------------------------------------|--------------------------------
G|-----------------------------------------|--------------------------------
D|-----------------------------------------|--------------------------------
A|-----------------------------------------|--------------------------------
E|--0--0----0--5--7/8\7--7--5--5--7--7--5--|--0--0----0--5--7/8\7--7--5-----



E|-----------------------------------------|---------------------------------
B|-----------------------------------------|---------------------------------
G|-----------------------------------------|---------------------------------
D|--0--0----0--5--7-8-7--7--5--5--7--7--5--|--0--0----0--5--7-8-7--7--5--0---
A|--0--0----0--5--7-8-7--7--5--5--7--7--5--|--0--0----0--5--7-8-7--7--5--0---
E|--0--0----0--5--7/8\7--7--5--5--7--7--5--|--0--0----0--5--7/8\7--7--5--0v--



E|--------------------------|--------------------------
B|--------------------------|--------------------------
G|--------------------------|--------------------------
D|--0--0--0--0--0--0--0--0--|--0--0--0--0--0--0--0--0--
A|--0--0--0--0--0--0--0--0--|--0--0--0--0--0--0--0--0--
E|--0--0--0--0--0--0--0--0--|--0--0--0--0--0--0--0--0--



E|--------------------------|--------------------------
B|--------------------------|--------------------------
G|--------------------------|--------------------------
D|--0--0--0--0--0--0--0--0--|--0--0--0--0--0--0--0--0--
A|--0--0--0--0--0--0--0--0--|--0--0--0--0--0--0--0--0--
E|--0--0--0--0--0--0--0--0--|--0--0--0--0--0--0--0--0--



E|--------------------------|--------------------------
B|--------------------------|--------------------------
G|--------------------------|--------------------------
D|--3--3--3--3--3--3--3--3--|--3--3--3--3--3--3--3--3--
A|--3--3--3--3--3--3--3--3--|--3--3--3--3--3--3--3--3--
E|--3--3--3--3--3--3--3--3--|--3--3--3--3--3--3--3--3--



E|--------------------------|--------------------------
B|--------------------------|--------------------------
G|--------------------------|--------------------------
D|--2--2--2--2--2--2--2--2--|--5--5--5--5--5--5--5--5--
A|--2--2--2--2--2--2--2--2--|--5--5--5--5--5--5--5--5--
E|--2--2--2--2--2--2--2--2--|--5--5--5--5--5--5--5--5--



E|-----------------------------------------
B|-----------------------------------------
G|-----------------------------------------
D|-----------------------------------------
A|-----------------------------------------
E|--0--0----0--5--7/8\7--7--5--5--7--7--5--



E|--------------------------|--------------------------
B|--------------------------|--------------------------
G|--------------------------|--------------------------
D|--0--0--0--0--0--0--0--0--|--0--0--0--0--0--0--0--0--
A|--0--0--0--0--0--0--0--0--|--0--0--0--0--0--0--0--0--
E|--0--0--0--0--0--0--0--0--|--0--0--0--0--0--0--0--0--



E|--------------------------|--------------------------|--
B|--------------------------|--------------------------|--
G|--------------------------|--------------------------|--
D|--3--3--3--3--3--3--3--3--|--3--3--3--3--3--3--3--3--|--
A|--3--3--3--3--3--3--3--3--|--3--3--3--3--3--3--3--3--|--
E|--3--3--3--3--3--3--3--3--|--3--3--3--3--3--3--3--3--|--



E|--------------------------|--------------------------|--
B|--------------------------|--------------------------|--
G|--------------------------|--------------------------|--
D|--8--8--8--8--8--8--8--8--|--8--8--8--8--8--8--8--8--|--
A|--8--8--8--8--8--8--8--8--|--8--8--8--8--8--8--8--8--|--
E|--8--8--8--8--8--8--8--8--|--8--8--8--8--8--8--8--8--|--



E|------------------------------------------------
B|------------------------------------------------
G|--7--7----7--7--7--7--x--x--9--9----9--9--9--9--
D|--x--x----x--x--x--x--x--x--x--x----x--x--x--x--
A|--5--5----5--5--5--5--x--x--7--7----7--7--7--7--
E|------------------------------------------------



E|--------------------------------------------
B|--------------------------------------------
G|--------------------------------------------
D|--0----0----0--0--0--0------0----0----0--0--
A|--0----0----0--0--0--0------0----0----0--0--
E|--0----0----0--0--0--0------0----0----0--0--



E|------------------------------------------------------------
B|------------------------------------------------------------
G|------------------------------------------------------------
D|---------------------------------------------------------3--
A|---------------------------------------------------------3--
E|--0----------3--3--3--3------3--3----3--2----5--5--5--5--3--



E|---------------------------------------------------------------
B|---------------------------------------------------------------
G|---------------------------------------------------------------
D|--0----3--3--3--3------3--3--3--2----5--5--5--5----x--5--x--3--
A|--0----3--3--3--3------3--3--3--2----5--5--5--5----x--5--x--3--
E|--0----3--3--3--3------3--3--3--2----5--5--5--5----x--5--x--3--



E|-----------------------------------------------------------------
B|-----------------------------------------------------------------
G|-----------------------------------------------------------------
D|--0------3--3--3--3----3--3--3--2------5--5--5--5----x--5--x--3--
A|--0------3--3--3--3----3--3--3--2------5--5--5--5----x--5--x--3--
E|--0------3--3--3--3----3--3--3--2------5--5--5--5----x--5--x--3--



E|--------------------------------------
B|--------------------------------------
G|--------------------------------------
D|--0-----------------------------------
A|--0-----------------------------------
E|--0v----------------------------------



E|----------------------------------
B|----------------------------------
G|----------------------------------
D|--15------------------------------
A|--15------------------------------
E|--15\14--13--12--11--10--9--8--7--



E|--------------------------|--------------------------|--
B|--------------------------|--------------------------|--
G|--------------------------|--------------------------|--
D|--8--8--8--8--8--8--8--8--|--8--8--8--8--8--8--8--8--|--
A|--8--8--8--8--8--8--8--8--|--8--8--8--8--8--8--8--8--|--
E|--8--8--8--8--8--8--8--8--|--8--8--8--8--8--8--8--8--|--



E|--------------------------|--------------------------|--
B|--------------------------|--------------------------|--
G|--------------------------|--------------------------|--
D|--7--7--7--7--7--7--7--7--|--7--7--7--7--7--7--7--7--|--
A|--7--7--7--7--7--7--7--7--|--7--7--7--7--7--7--7--7--|--
E|--7--7--7--7--7--7--7--7--|--7--7--7--7--7--7--7--7--|--



E|--------------------------|--------------------------
B|--------------------------|--------------------------
G|--------------------------|--------------------------
D|--8--8--8--8--8--8--8--8--|--8--8--8--8--8--8--8--8--
A|--8--8--8--8--8--8--8--8--|--8--8--8--8--8--8--8--8--
E|--8--8--8--8--8--8--8--8--|--8--8--8--8--8--8--8--8--



E|--------------------------|--------------------------|--
B|--------------------------|--------------------------|--
G|--------------------------|--------------------------|--
D|--7--7--7--7--7--7--7--7--|--7--7--7--7--7--7--7--7--|--
A|--7--7--7--7--7--7--7--7--|--7--7--7--7--7--7--7--7--|--
E|--7--7--7--7--7--7--7--7--|--7--7--7--7--7--7--7--7--|--



E|--------------------------|--------------------------|--
B|--------------------------|--------------------------|--
G|--------------------------|--------------------------|--
D|--5--5--5--5--5--5--5--5--|--5--5--5--5--5--5--5--5--|--
A|--5--5--5--5--5--5--5--5--|--5--5--5--5--5--5--5--5--|--
E|--5--5--5--5--5--5--5--5--|--5--5--5--5--5--5--5--5--|--



E|--------------------------|--------------------------|--
B|--------------------------|--------------------------|--
G|--------------------------|--------------------------|--
D|--7--7--7--7--7--7--7--7--|--7--7--7--7--7--7--7--7--|--
A|--7--7--7--7--7--7--7--7--|--7--7--7--7--7--7--7--7--|--
E|--7--7--7--7--7--7--7--7--|--7--7--7--7--7--7--7--7--|--



E|--------------------------|--------------------------
B|--------------------------|--------------------------
G|--------------------------|--------------------------
D|--8--8--8--8--8--8--8--8--|--8--8--8--8--8--8--8--8--
A|--8--8--8--8--8--8--8--8--|--8--8--8--8--8--8--8--8--
E|--8--8--8--8--8--8--8--8--|--8--8--8--8--8--8--8--8--



E|---------------------
B|---------------------
G|---------------------
D|--7------7--7----7---
A|--7------7--7----7---
E|--7------7--7----7v--



E|--------------------------|--------------------------|--
B|--------------------------|--------------------------|--
G|--------------------------|--------------------------|--
D|--8--8--8--8--8--8--8--8--|--8--8--8--8--8--8--8--8--|--
A|--8--8--8--8--8--8--8--8--|--8--8--8--8--8--8--8--8--|--
E|--8--8--8--8--8--8--8--8--|--8--8--8--8--8--8--8--8--|--



E|--------------------------------------------------
B|--------------------------------------------------
G|--7--7------7--7--7--7--x--x--9--9----9--9--9--9--
D|--x--x------x--x--x--x--x--x--x--x----x--x--x--x--
A|--5--5------5--5--5--5--x--x--7--7----7--7--7--7--
E|--------------------------------------------------



E|--------------------------|--------------------------|--
B|--------------------------|--------------------------|--
G|--------------------------|--------------------------|--
D|--0--0--0--0--0--0--0--0--|--0--0--0--0--0--0--0--0--|--
A|--0--0--0--0--0--0--0--0--|--0--0--0--0--0--0--0--0--|--
E|--0--0--0--0--0--0--0--0--|--0--0--0--0--0--0--0--0--|--



E|--------------------------|--------------------------
B|--------------------------|--------------------------
G|--------------------------|--------------------------
D|--3--3--3--3--3--3--3--3--|--3--3--3--3--3--3--3--3--
A|--3--3--3--3--3--3--3--3--|--3--3--3--3--3--3--3--3--
E|--3--3--3--3--3--3--3--3--|--3--3--3--3--3--3--3--3--



E|--------------------------|--------------------------
B|--------------------------|--------------------------
G|--------------------------|--------------------------
D|--8--8--8--8--8--8--8--8--|--8--8--8--8--8--8--8--8--
A|--8--8--8--8--8--8--8--8--|--8--8--8--8--8--8--8--8--
E|--8--8--8--8--8--8--8--8--|--8--8--8--8--8--8--8--8--



E|--------------------------|--------------------------
B|--------------------------|--------------------------
G|--------------------------|--------------------------
D|--5--5--5--5--5--5--5--5--|--7--7--7--7--7--7--7--7--
A|--5--5--5--5--5--5--5--5--|--7--7--7--7--7--7--7--7--
E|--5--5--5--5--5--5--5--5--|--7--7--7--7--7--7--7--7--



E|--------------------------|--------------------------|--
B|--------------------------|--------------------------|--
G|--------------------------|--------------------------|--
D|--8--8--8--8--8--8--8--8--|--8--8--8--8--8--8--8--8--|--
A|--8--8--8--8--8--8--8--8--|--8--8--8--8--8--8--8--8--|--
E|--8--8--8--8--8--8--8--8--|--8--8--8--8--8--8--8--8--|--



E|------------------------------------------------
B|------------------------------------------------
G|--7--7----7--7--7--7--x--x--9--9----9--9--9--9--
D|--x--x----x--x--x--x--x--x--x--x----x--x--x--x--
A|--5--5----5--5--5--5--x--x--7--7----7--7--7--7--
E|------------------------------------------------



E|---------------------------------------------
B|---------------------------------------------
G|---------------------------------------------
D|-----------------------------5--7--5------0--
A|-----------------------------5--7--5------0--
E|--0--0----0--5--7/8\7--7--5--5--7--5------0--
http://www.guitartabcreator.com
Guitar Tab Creator is intended to store guitar tab created through the tool. It currently does not support in-line text editing. Any text you place in here will be lost. If you need to comment on your tab, please use the "Tab Notes" section located below.