ATB - Dooley's World

(/) Slide Up  (\) Slide Down  (h) Hammer On  (p) Pull Off  (b) Bend (r) Release (v) Vibrato


E|-3-------3-2----------------
B|--------------3---------3-1-
G|-----0----------------0-----
D|---0----------------4-------
A|-2-----2----------5-------3-
E|----------------------------



E|-----------------------------------------------------------
B|-10/12-10-8-7---7-8-8/10-8-7-5---5-7-8-8/10-7--7h8-5-7-----
G|-------------------------------------------------------7-5-
D|-----------------------------------------------------------
A|-----------------------------------------------------------
E|-----------------------------------------------------------
http://www.guitartabcreator.com
Guitar Tab Creator is intended to store guitar tab created through the tool. It currently does not support in-line text editing. Any text you place in here will be lost. If you need to comment on your tab, please use the "Tab Notes" section located below.