Tegan and Sara - The Con

(/) Slide Up  (\) Slide Down  (h) Hammer On  (p) Pull Off  (b) Bend (r) Release (v) Vibrato




Intro x2
E|--------------------------------------
B|--------------------------------------
G|--------------------------------------
D|--------------------------------------
G|--13--13-12--12--6--6--8--8--
E|--------------------------------------

Verse x4
E|--------------------------------------
B|--------------------------------------
G|--------------------------------------
D|--------------------------------------
G|--13--13-12--12--6--6--8--8--
E|--------------------------------------

x4
E|------------------------------------------------
B|------------------------------------------------
G|------------------------------------------------
D|------------------------------------------------
G|--13--13m--12--12m--6--6m--8--8m--
E|------------------------------------------------

x1
E|--------------------------------------
B|--------------------------------------
G|--------------------------------------
D|--------------------------------------
G|--6--8--6--8--6-------------------
E|--------------------------------------

x1
E|------------------------------------------------------
B|------------------------------------------------------
G|------------------------------------------------------
D|------------------------------------------------------
G|--8--8--10--10--12--12--13--13--0--0--6--
E|------------------------------------------------------

Verse x4
E|--------------------------------------
B|--------------------------------------
G|--------------------------------------
D|--------------------------------------
G|--13--13-12--12--6--6--8--8--
E|--------------------------------------

x4
E|------------------------------------------------
B|------------------------------------------------
G|------------------------------------------------
D|------------------------------------------------
G|--13--13m--12--12m--6--6m--8--8m--
E|------------------------------------------------

x1
E|--------------------------------------
B|--------------------------------------
G|--------------------------------------
D|--------------------------------------
G|--6--8--6--8--6-------------------
E|--------------------------------------

x5
E|------------------------------------------------------
B|------------------------------------------------------
G|------------------------------------------------------
D|------------------------------------------------------
G|--8--8--10--10--12--12--13--13--0--0--6--
E|------------------------------------------------------

x1
E|--------------------------------------
B|--------------------------------------
G|--------------------------------------
D|--------------------------------------
G|--6--8--6--8--6-------------------
E|--------------------------------------

Nobody Play Forwards and Back
E|---------------------------------------------------------
B|---------------------------------------------------------
G|---------------------------------------------------------
D|---------------------------------------------------------
G|--13--13--12--12--10--10--8--8--6--6--5--5--
E|---------------------------------------------------------

x1
E|----------------------------------------
B|----------------------------------------
G|----------------------------------------
D|----------------------------------------
G|----------------------------------------
E|---------------8--8--------------------

x3
E|------------------------------------------------------
B|------------------------------------------------------
G|------------------------------------------------------
D|------------------------------------------------------
G|--8--8--10--10--12--12--13--13--0--0--6--
E|------------------------------------------------------

x1
E|--------------------------------------------------
B|--------------------------------------------------
G|--------------------------------------------------
D|--------------------------------------------------
G|--8--8--10--10--12--12--13--13--0--0--
E|--------------------------------------------------



http://www.guitartabcreator.com
Guitar Tab Creator is intended to store guitar tab created through the tool. It currently does not support in-line text editing. Any text you place in here will be lost. If you need to comment on your tab, please use the "Tab Notes" section located below.