Hey Brother - Avicii Melody

(/) Slide Up  (\) Slide Down  (h) Hammer On  (p) Pull Off  (b) Bend (r) Release (v) Vibrato

E|-----------------------------------------
B|--------------4--2-----------------------
G|--4-----1--4--------4--1-----1-----------
D|-----4--------------------4-----4--1-----
A|--------------------------------------2--
E|-----------------------------------------



E|-----------------------------------------
B|--------------4--2-----------------------
G|--4-----1--4--------4--1-----1-----1--4--
D|-----4--------------------4-----4--------
A|-----------------------------------------
E|-----------------------------------------



E|--------------------------------------------------------------
B|--2-----2--4--2--------2-----2--4--4--4--4--2-----------------
G|-----4-----------4--1-----4--------------------4--1--1-----1--
D|--------------------------------------------------------4-----
A|--------------------------------------------------------------
E|--------------------------------------------------------------



E|-----------------------------------------
B|--------------4--2-----------------------
G|--4-----1--4--------4--1-----1-----------
D|-----4--------------------4-----4--1-----
A|--------------------------------------2--
E|-----------------------------------------



E|-----------------------------------------
B|--------------4--2-----------------------
G|--4-----1--4--------4--1-----1-----1--4--
D|-----4--------------------4-----4--------
A|-----------------------------------------
E|-----------------------------------------



E|--------------------------------------------------------------
B|--2-----2--4--2--------2-----2--4--4--4--4--2-----------------
G|-----4-----------4--1-----4--------------------4--1--1-----1--
D|--------------------------------------------------------4-----
A|--------------------------------------------------------------
E|--------------------------------------------------------------



E|--------------------4--4--2--2-----------------------
B|-----------------4--------------4--4--4--2--4--2-----
G|--4--3--1--1--4-----------------------------------4--
D|-----------------------------------------------------
A|-----------------------------------------------------
E|-----------------------------------------------------



E|-----------4h6p4--2--2-----------------------
B|--------4---------------4--4--4--2--4--2-----
G|--1--4------------------------------------4--
D|---------------------------------------------
A|---------------------------------------------
E|---------------------------------------------



E|--------------------------------------------------------------
B|--2-----2--4--2--------2-----2--4--4--4--4--2-----------------
G|-----4-----------4--1-----4--------------------4--1--1-----1--
D|--------------------------------------------------------4-----
A|--------------------------------------------------------------
E|--------------------------------------------------------------



E|--------------------4--4--2------------------4h6p4--2------------
B|-----------------4------------------------4------------4p2p0-----
G|--4--3--1--1--4--------------4p1h4--1--4----------------------1--
D|-----------------------------------------------------------------
A|-----------------------------------------------------------------
E|-----------------------------------------------------------------



E|-----------4--4--2---------4--2-----2--
B|--------4------------------------4-----
G|--1--4--------------4p1h4--------------
D|---------------------------------------
A|---------------------------------------
E|---------------------------------------



E|--------------4--4--2------------------4h6p4--2--------------
B|-----------4------------------------4------------4--2--0-----
G|--1--1--4--------------4p1h4--1--4------------------------1--
D|-------------------------------------------------------------
A|-------------------------------------------------------------
E|-------------------------------------------------------------



E|-----------4--4--2---------4--2-----2-----
B|--------4------------------------4--------
G|--1--4--------------4p1h4--------------1--
D|------------------------------------------
A|------------------------------------------
E|------------------------------------------
http://www.guitartabcreator.com
Guitar Tab Creator is intended to store guitar tab created through the tool. It currently does not support in-line text editing. Any text you place in here will be lost. If you need to comment on your tab, please use the "Tab Notes" section located below.