Wall Of Resound

(/) Slide Up  (\) Slide Down  (h) Hammer On  (p) Pull Off  (b) Bend (r) Release (v) Vibrato

t: E E E E E E E E undefined E E E E E E E E undefined E E E E E E E E
E|--------------------------|--------------------------|-----------------------------
B|--------------------------|--------------------------|-----------------------------
G|-----9-----9-----9-----9--|-----9-----9-----9-----9--|-----7-----7-----7-----7-----
D|--7-----7-----7-----7-----|--6-----6-----6-----6-----|--5-----5-----5-----5--------
A|--------------------------|--------------------------|-----------------------------
E|--------------------------|--------------------------|-----------------------------



E|--------------------------|-------------------|-------------------|-------------------|-----
B|--------------------------|-------------------|-------------------|-------------------|-----
G|-----7-----7-----7-----7--|-----9-----9----9--|----------------9--|-----7-----7----7--|-----
D|--4-----4-----4-----4-----|--7-----7----------|--7h9h7----7/6-----|--5-----5----------|-----
A|--------------------------|-------------------|-------------------|-------------------|-----
E|--------------------------|-------------------|-------------------|-------------------|-----



E|--------------------------|-------------------|--------------------|-------------------|--
B|--------------------------|-------------------|--------------------|-------------------|--
G|-----7-----7-----7-----7--|-----9-----9----9--|-----9-----9--------|-----7-----7----7--|--
D|--4-----4-----4-----4-----|--7-----7----------|--6-----6-----------|--5-----5----------|--
A|--------------------------|-------------------|--------------------|-------------------|--
E|--------------------------|-------------------|--------------------|-------------------|--



E|--------------------------|--
B|--------------------------|--
G|-----7-----7-----7-----7--|--
D|--4-----4-----4-----4-----|--
A|--------------------------|--
E|--------------------------|--
http://www.guitartabcreator.com
Guitar Tab Creator is intended to store guitar tab created through the tool. It currently does not support in-line text editing. Any text you place in here will be lost. If you need to comment on your tab, please use the "Tab Notes" section located below.