Chopin Scherzo No 2. Op 31

(/) Slide Up  (\) Slide Down  (h) Hammer On  (p) Pull Off  (b) Bend (r) Release (v) Vibrato


E|-----------------------------------9------------------------------------------------
B|-------------------------------10-----12--10----------------------------------------
G|----------------------------9-----------------9-------------------------------------
D|-------------11--9------11-----------------------11--9------------------------------
A|---------12---------12----------------------------------12--7-----------------------
E|--9--12--------------------------------------------------------9--7--5--0--9--7--5--



E|---------------------------------7--10--9--7---------------------------------------
B|--------------------------7--10---------------9------------------------------------
G|--------------------4--7-------------------------7--6------------------------------
D|--------------4--7-------------------------------------9--6-----6------------------
A|--------2--5-------------------------------------------------7-----9--7------------
E|--2--5-------------------------------------------------------------------10--------
http://www.guitartabcreator.com
Guitar Tab Creator is intended to store guitar tab created through the tool. It currently does not support in-line text editing. Any text you place in here will be lost. If you need to comment on your tab, please use the "Tab Notes" section located below.