improv2

(/) Slide Up  (\) Slide Down  (h) Hammer On  (p) Pull Off  (b) Bend (r) Release (v) Vibrato

E|-------------------------------------------------------------------
B|---------------------------------3--6------------------------------
G|--12--10-------------------3--5--------12--10-------------5--------
D|--12--10-------------3--5--------------12--10-------5--7-----5--7--
A|---------------3--5----------------------------5h8-----------------
E|----------3h6------------------------------------------------------



E|--------------------------------------------------------
B|--------------------------------------------------------
G|--12--10----------------------12--10--------------------
D|--12--10--------------7b9--7--12--10--------------7-----
A|----------------7--9------------------------7--9-----0--
E|----------7h10------------------------7h10--------------
http://www.guitartabcreator.com
Guitar Tab Creator is intended to store guitar tab created through the tool. It currently does not support in-line text editing. Any text you place in here will be lost. If you need to comment on your tab, please use the "Tab Notes" section located below.