f minor

(/) Slide Up  (\) Slide Down  (h) Hammer On  (p) Pull Off  (b) Bend (r) Release (v) Vibrato

E|-----------0--------------------0-----------------0-----------------0-----------------0-----
B|--------1-----1--------------1-----1-----------0-----0-----------0-----0-----------1--------
G|-----1-----------1--------1-----------------1-----------1-----1-----------------1-----------
D|--4-----------------4--4--------------4--2-----------------2--------------2--4--------------
A|--------------------------------------------------------------------------------------------
E|--------------------------------------------------------------------------------------------



E|--1--------3-----------------4--------------------4--------
B|-----1--------1-----------0-----0--------------0-----0-----
G|--------1--------1-----1-----------1--------1--------------
D|--------------------2-----------------2--2--------------2--
A|-----------------------------------------------------------
E|-----------------------------------------------------------
http://www.guitartabcreator.com
Guitar Tab Creator is intended to store guitar tab created through the tool. It currently does not support in-line text editing. Any text you place in here will be lost. If you need to comment on your tab, please use the "Tab Notes" section located below.