Nothing else

(/) Slide Up  (\) Slide Down  (h) Hammer On  (p) Pull Off  (b) Bend (r) Release (v) Vibrato

Stave 1:

E|-----------0-----------------0-----------------0-----------------0-----7--7--------7p0--------
B|--------0-----0-----------0-----0-----------0-----0-----------0-----0--------0----------0-----
G|-----0-----------0-----0-----------0-----0-----------0-----0--------------------0----------0--
D|----------------------------------------------------------------------------------------------
A|----------------------------------------------------------------------------------------------
E|--0-----------------0-----------------0-----------------0-----------------0-------------------

Stave 2:

E|--------7--8--7--8--7--5\0-----------2p0-----------------0--0--0--------------3p0--------0--------------
B|--------0--0----------------5-----5-------5-----------5-----5--5--------5----------5-----5--------------
G|-----0-------------------------5-------------5-----5--------5--5-----5-----5----------5--5--------------
D|------------------------------------------------------------0--0-------------------------0--------------
A|----------------------------5-------------------0-----------2--3--3----------------------3--------------
E|--0-----------------------------------------------------------------------------------------------------

Stave 3:

E|--0--------------|--------------
B|--7--------7-----|--------------
G|--7-----7-----7--|--------------
D|--0--------------|--------------
A|--5--5-----------|--------------
E|-----------------|--------------

Stave 4:

E|--
B|--
G|--
D|--
A|--
E|--

http://www.guitartabcreator.com
Guitar Tab Creator is intended to store guitar tab created through the tool. It currently does not support in-line text editing. Any text you place in here will be lost. If you need to comment on your tab, please use the "Tab Notes" section located below.