Joy to The World

(/) Slide Up  (\) Slide Down  (h) Hammer On  (p) Pull Off  (b) Bend (r) Release (v) Vibrato


E|--------------------------------------------
B|-2-2/14-14----------------------------------
G|-----------13-13----------------------------
D|-----------------15-15-13-13-11-13-15-15v---
A|--------------------------------------------
E|--------------------------------------------



E|--------------------------------------------
B|-2-2/14-14----------------------------------
G|-----------13-13----------------------------
D|-----------------15-15-13-13-11-13/15-------
A|--------------------------------------13v---
E|--------------------------------------------



E|------------------------------------------------------------------------------
B|-2-2/14-14--------------------------------------------------------------------
G|-----------13-13----------------------13----------------13--------------------
D|-----------------15-15-13-13-11-13/15----11-13-11-13/15----11-13-11-13/15-----
A|--------------------------------------------------------------------------13v-
E|------------------------------------------------------------------------------
http://www.guitartabcreator.com
Guitar Tab Creator is intended to store guitar tab created through the tool. It currently does not support in-line text editing. Any text you place in here will be lost. If you need to comment on your tab, please use the "Tab Notes" section located below.