Baba O'Reilly

(/) Slide Up  (\) Slide Down  (h) Hammer On  (p) Pull Off  (b) Bend (r) Release (v) Vibrato

Stave 1:

E|--------------------------------------------------|--
B|--------------6--6--------------------6--6--------|--
G|--------5--5--------5--5--------5--5--------5--5--|--
D|--3--3--------------------3--3--------------------|--
A|--------------------------------------------------|--
E|--------------------------------------------------|--

Stave 2:

E|----------|---------|----------|---------|----------|---------|----------|---------|--
B|----------|---------|----------|---------|----------|---------|----------|---------|--
G|-------5--|--3------|-------5--|--3------|-------5--|--3------|-------5--|--3------|--
D|--3----5--|--3------|--3----5--|--3------|--3----5--|--3------|--3----5--|--3------|--
A|--3----3--|--1------|--3----3--|--1------|--3----3--|--1------|--3----3--|--1------|--
E|--1-------|---------|--1-------|---------|--1-------|---------|--1-------|---------|--

Stave 3:

E|----------|---------|---------|---------|---------|--
B|----------|---------|---------|---------|---------|--
G|-------5--|--3------|--5------|--5------|--5------|--
D|--3----5--|--3------|--5------|--5------|--5------|--
A|--3----3--|--1------|--3------|--3------|--3------|--
E|--1-------|---------|---------|---------|---------|--

Stave 4:

E|----------|----------|-------|-------|--3----|--
B|----------|----------|-------|-------|--3----|--
G|--5-------|--5----3--|-------|--3----|--0----|--
D|--5----3--|--5----3--|--3----|--3----|--0----|--
A|--3----3--|--3----1--|--3----|--1----|-------|--
E|-------1--|----------|--1----|-------|--3----|--

Stave 5:

E|--13----13------|------------------13--15--13--|--15b16--13--13----------------------|--
B|------------13--|--13h15--15--15v--------------|-----------------15--13--15--13--15--|--
G|----------------|------------------------------|-------------------------------------|--
D|----------------|------------------------------|-------------------------------------|--
A|----------------|------------------------------|-------------------------------------|--
E|----------------|------------------------------|-------------------------------------|--

Stave 6:

E|------------------------------------------------|-----------|--
B|--13--------------------------------------------|-----------|--
G|------15b17--15b17--15b17--15b17--15b17--15b17--|--15b17----|--
D|------------------------------------------------|-----------|--
A|------------------------------------------------|-----------|--
E|------------------------------------------------|-----------|--

Stave 7:

E|--12--13--15--12--13--15--12--13--15--|--12--13--15--12--13--15--12--13--15--|--
B|--------------------------------------|--------------------------------------|--
G|--------------------------------------|--------------------------------------|--
D|--------------------------------------|--------------------------------------|--
A|--------------------------------------|--------------------------------------|--
E|--------------------------------------|--------------------------------------|--

Stave 8:

E|--12--13--15--12--13--15--12--13--15--|--11--13--15--11--13--15--11--13--15--|--
B|--------------------------------------|--------------------------------------|--
G|--------------------------------------|--------------------------------------|--
D|--------------------------------------|--------------------------------------|--
A|--------------------------------------|--------------------------------------|--
E|--------------------------------------|--------------------------------------|--

Stave 9:

E|--12--13--12--13--12--13--12--13--12--13--12--13--12--13--12------|-----
B|--------------------------------------------------------------13--|-----
G|------------------------------------------------------------------|-----
D|------------------------------------------------------------------|-----
A|------------------------------------------------------------------|-----
E|------------------------------------------------------------------|-----

Stave 10:

E|--12--13--12--13--12--13--12--13--12--13--12--13--15--12--13--13--|--
B|------------------------------------------------------------------|--
G|------------------------------------------------------------------|--
D|------------------------------------------------------------------|--
A|------------------------------------------------------------------|--
E|------------------------------------------------------------------|--

Stave 11:

E|--13--13--15--13--15--13--15--13--15--13--15--13--15--13--15--13--|--
B|------------------------------------------------------------------|--
G|------------------------------------------------------------------|--
D|------------------------------------------------------------------|--
A|------------------------------------------------------------------|--
E|------------------------------------------------------------------|--

Stave 12:

E|--11--13--11--13--11--13--11--13--11--13--11--13--11--13--11--13--|--
B|------------------------------------------------------------------|--
G|------------------------------------------------------------------|--
D|------------------------------------------------------------------|--
A|------------------------------------------------------------------|--
E|------------------------------------------------------------------|--

Stave 13:

E|--11---------------------|-----------------------|--------------------------|---------------------
B|------13v----------------|-----------------------|--------------------------|---------------------
G|-----------15b17--15b17--|--15b17----15--15--15--|--15b17r--14--------------|---------------------
D|-------------------------|-----------------------|--------------15--13--12--|---------------------
A|-------------------------|-----------------------|--------------------------|--13--12-------------
E|-------------------------|-----------------------|--------------------------|----------13--11-----

http://www.guitartabcreator.com
Guitar Tab Creator is intended to store guitar tab created through the tool. It currently does not support in-line text editing. Any text you place in here will be lost. If you need to comment on your tab, please use the "Tab Notes" section located below.