A Whole New World

(/) Slide Up  (\) Slide Down  (h) Hammer On  (p) Pull Off  (b) Bend (r) Release (v) Vibrato


E|-----------1----0--------|--------------0--------|--0--------1----0-----|--0-----------------------|--
B|--1-----3----------1-----|--------1-----------3--|--------3----------1--|-----------1--3-----------|--
G|----------------------0--|-----0-----0-----------|----------------------|--------2-----------0-----|--
D|-----2-------------------|--2--------------3-----|-----2----------------|-----3-----------0-----0--|--
A|-------------------------|-----------------------|----------------------|--------------------------|--
E|-------------------------|-----------------------|----------------------|--------------------------|--



E|-----------0--------------|--------------------------|-----------------------|-----------------0--------|--
B|--3-----2--------3--0-----|--3-----1--0-----1--------|--------1--3-----1-----|-----------1-----------3--|--
G|--------------------------|-----------------------0--|--2-----------------0--|--------0-----0-----------|--
D|-----3-----------------0--|-----2--------------2-----|-----3-----------------|-----2--------------3-----|--
A|--------------------------|--------------------------|-----------------------|--3-----------------------|--
E|--------------0-----------|--------------3-----------|--------------1--------|--------------------------|--



E|--0--------1----0--------|--------------0--------|--0--------1----0-----|--0-----------------------|--
B|--------3----------1-----|--------1-----------3--|--------3----------1--|-----------1--3-----------|--
G|----------------------0--|-----0-----0-----------|----------------------|--------2-----------0-----|--
D|-----2-------------------|--2--------------3-----|-----2----------------|-----3-----------0-----0--|--
A|-------------------------|-----------------------|----------------------|--------------------------|--
E|-------------------------|-----------------------|----------------------|--------------------------|--



E|-----------0-----------------|--------------------------|--------------------------|--------------------5-----|--
B|--3-----2--------3--0--------|--3-----1--0-----1-----0--|--------1--3-----1-----5--|-----------5--6-----------|--
G|-----------------------------|--------------------------|--2-----------------------|--------5-----------------|--
D|-----3-----------------0-----|-----2--------------2-----|-----3--------------3-----|-----5-----------5-----5--|--
A|--------------------------0--|--------------------------|--------------------------|--------------------------|--
E|--------------0--------------|--------------3-----------|--------------1-----------|--8-----------------------|--



E|--3-------------------------|--------------------5-----|--3--------1-----0----0--|--------------0--1--3--|--
B|--------0-----0-------------|-----------5--6-----------|--------3----------------|-----------1-----------|--
G|-----------0-------0-----0--|--------5-----------------|-------------------------|--------0--------------|--
D|-----0----------------0-----|-----5-----------5-----5--|-----0-------------------|-----2-----------------|--
A|----------------------------|--------------------------|--------------2----------|--3--------------------|--
E|----------------------------|--8-----------------------|-------------------------|-----------------------|--



E|--7------------------------|--7------------------------|--0--------------------|-----------0--------5--|--
B|--------10--8--------8-----|--------10--8--------8-----|--------3--3--------3--|-----------------------|--
G|-----9------------------5--|-----9------------------5--|-----------------5-----|--------0-----6--------|--
D|------------------5--------|------------------5--------|-----5-----------------|-----0-----------------|--
A|---------------7-----------|---------------7-----------|--------------5--------|-----------------7-----|--
E|---------------------------|---------------------------|-----------------------|--3--------------------|--



E|--3-----------------------------------------5-----|--3--------------------0--|--------------------3--|--
B|-----------3-----------3-----------5--6-----------|--------3--6-----5--------|-----------1--5--6-----|--
G|--------0-----------0-----------5-----------------|--------------------------|--------2--------------|--
D|-----0-----------0-----------5-----------5-----5--|-----5--------------6-----|-----2-----------------|--
A|--------------2-----------------------------------|--------------------------|--0--------------------|--
E|--------------------------8-----------------------|--------------4-----------|-----------------------|--



E|--7------------------------|--7------------------------|--0----------------------|-----------3--------------|--
B|--------10--8--------8-----|--------10--8--------8-----|--------3--3----------6--|-----5-----------5-----1--|--
G|-----9------------------5--|-----9------------------5--|-----------------5-------|--------------------------|--
D|------------------5--------|------------------5--------|-----5-------------------|--------6-----------3-----|--
A|---------------7-----------|---------------7-----------|--------------5----------|--------------------------|--
E|---------------------------|---------------------------|-------------------------|--6-----------3-----------|--



E|-------------------------|--
B|-----------1-------------|--
G|--------0-------0-----0--|--
D|-----2-------------2-----|--
A|--3----------------------|--
E|-------------------------|--
http://www.guitartabcreator.com
Guitar Tab Creator is intended to store guitar tab created through the tool. It currently does not support in-line text editing. Any text you place in here will be lost. If you need to comment on your tab, please use the "Tab Notes" section located below.