Beauty and the Beast

(/) Slide Up  (\) Slide Down  (h) Hammer On  (p) Pull Off  (b) Bend (r) Release (v) Vibrato


E|--------------------------|--------------------------|--0-----------------------|--0-----------------------|--
B|-----------3--------2--3--|-----------0--0--2--2--3--|-----------3--------2--3--|-----------3--0--2--2--3--|--
G|--------2--------2--------|--0-----0-----------------|--------2--------2--------|--------4-----------------|--
D|-----4--------4-----------|-----0--------------------|-----4--------4-----------|-----5--------------------|--
A|--5-----------------------|--------------------------|--------------------------|--------------------------|--
E|--------------------------|--------------------------|--------------------------|--------------------------|--



E|-----------------0--2--3--|--5--------5--5--3--2-----|--------------3--2--0-----|--------------------------|--
B|-----------3--3-----------|-----------------------5--|--3--------3-----------3--|-----------------------3--|--
G|--2-----2-----------------|--------2-----------------|--------0-----------------|--2-----2-----------2-----|--
D|-----4--------------------|-----2--------------------|-----0--------------------|-----5-----5-----5--------|--
A|--------------------------|--------------------------|--------------------------|--------------0-----------|--
E|--------------------------|--------------------------|--------------------------|--------------------------|--



E|--------------------------|--------------------------|--------------------------|--0-----------------------|--
B|-----------2-----------3--|-----------3--------2--3--|-----------0--0--2--2--3--|-----------3--------2--3--|--
G|--------2-----------2-----|--------2--------2--------|--0-----0-----------------|--------2--------2--------|--
D|-----5-----------5--------|-----4--------4-----------|-----0--------------------|-----4--------4-----------|--
A|--0-----------0-----------|--5-----------------------|--------------------------|--------------------------|--
E|--------------------------|--------------------------|--------------------------|--------------------------|--



E|-----------------------5--|-----------------------2--|--------------2--3--0--2--|-------------------------|--
B|--5--------5--7--5--7-----|--3--------3--3--2--3-----|-----------0--------------|--3--------3----------3--|--
G|--------5-----------------|--------0-----------------|--0-----0-----------------|--------2----------2-----|--
D|-----5--------------------|-----0--------------------|-----0--------------------|-----4----------4--------|--
A|--------------------------|--------------------------|--------------------------|-------------------------|--
E|--------------------------|--------------------------|--------------------------|-------------------------|--
http://www.guitartabcreator.com
Guitar Tab Creator is intended to store guitar tab created through the tool. It currently does not support in-line text editing. Any text you place in here will be lost. If you need to comment on your tab, please use the "Tab Notes" section located below.