Natalie,look!

(/) Slide Up  (\) Slide Down  (h) Hammer On  (p) Pull Off  (b) Bend (r) Release (v) Vibrato

E|-----------------------------------------------------------------------------------------
B|-----------------------------------------------------------------------------------------
G|-----------------------------------------------------------------------------------------
D|------------7-------------------7----------------------7---------------------------------
A|--7--9--10-----10--9--7--9--10-----10--9--9--7--9--10-----10--9--------------10----------
E|-----------------------------------------------------------------10--12--14------14--12--



E|--------------------------------------------------------------------------------
B|--------------------------------------------------------------------------------
G|--------------------------------------------------------------------------------
D|------------7-------------------7-------------------7------------------5--------
A|--7--9--10-----10--9--7--9--10-----10--9--7--9--10-----10--9--5--7--9-----9--7--
E|--------------------------------------------------------------------------------
http://www.guitartabcreator.com
Guitar Tab Creator is intended to store guitar tab created through the tool. It currently does not support in-line text editing. Any text you place in here will be lost. If you need to comment on your tab, please use the "Tab Notes" section located below.