CrowfeatheR WITW Bass Chorus, Drop D

(/) Slide Up  (\) Slide Down  (h) Hammer On  (p) Pull Off  (b) Bend (r) Release (v) Vibrato

Stave 1:

E|-----------------------------------------------------------------------------------------------------------------------------------------------------------
B|-----------------------------------------------------------------------------------------------------------------------------------------------------------
G|-----------------------------------------------------------------------------------------------------------------------------------------9--7--------------
D|-----------------------------------------------------------------------------------------------------------------------------------------------9--7--------
A|--------------------------------------------------------------------------------------------------0--0--0--0--0--0--0--0--0--0--0--0--0--------------------
E|--3--3--3--3--3--3--3--3--3--3--3--3--3--3--3--3--3--3--3--3--3--3--3--3--3--3--3--3--5--5--5--5-----------------------------------------------------------

Stave 2:

E|------------------------------------------------------------------------------------
B|------------------------------------------------------------------------------------
G|--------------------3-----3/5--3--------------------3-----3/5--3--------------------
D|-----------------3-----3----------3--5-----------3-----3----------3--5--------------
A|--9--7--5--0--1-------------------------3--5--1-------------------------3--5--------
E|------------------------------------------------------------------------------5--5--

http://www.guitartabcreator.com
Guitar Tab Creator is intended to store guitar tab created through the tool. It currently does not support in-line text editing. Any text you place in here will be lost. If you need to comment on your tab, please use the "Tab Notes" section located below.