CrowfeatheR WITW BASS Bridge Drop D

(/) Slide Up  (\) Slide Down  (h) Hammer On  (p) Pull Off  (b) Bend (r) Release (v) Vibrato

Stave 1:

E|--------------------------------------------------------------------------------------------------------------------
B|--------------------------------------------------------------------------------------------------------------------
G|--------------------8/10--8--------------------------8/10--8--------------------------8/10--8-----------------------
D|-----------------------------10--8------8---------------------10--8------8------------------------------------------
A|-----------------6------------------10-----10--8--6------------------10-----10--8--6--------------------------------
E|--0--4--0--4--8-----------------------------------------------------------------------------------------------------

Stave 2:

E|--------------------------------------------------------------------------------
B|--------------------------------------------------------------------------------
G|--------------------------------------------------------------------------------
D|--10--8------8------------------------------------------------------------------
A|---------10-----10--8--3--3--3-----------------------3--3--3--------------------
E|--------------------------------5--5--3--5--5--5--5-----------5--5--3--5--5--8--

http://www.guitartabcreator.com
Guitar Tab Creator is intended to store guitar tab created through the tool. It currently does not support in-line text editing. Any text you place in here will be lost. If you need to comment on your tab, please use the "Tab Notes" section located below.