CrowfeatheR untitled chorus refrain with CGCGCE tuning (Electric Guitar)

(/) Slide Up  (\) Slide Down  (h) Hammer On  (p) Pull Off  (b) Bend (r) Release (v) Vibrato

E|-----------------------------
B|-----------------------------
G|-----------------------------
D|-----------------------------
A|-----------------------------
E|--0--0--3--3--3--3--3--5--0--



E|-----------------------------------------------------------
B|-----------------------------------------------------------
G|--7--5--------10--8--10--5--3--7--5------------------------
D|--0--0--------8---8--8---3--3--5--5------------------------
A|--0--0--------8---8--8---3--3--5--5------------------------
E|--0--0--0--8--8---8--8---3--3--5--5--0--5--5--0--0--5p7r0--



E|----------------------------------------------------------------------------------------0--
B|----------------------------------------------------------------------------------------0--
G|--7--5--------10--8--10--5--3--7--5-----------------------------------------------------0--
D|--0--0--------8---8--8---3--3--5--5-----------------------------------------------------0--
A|--0--0--------8---8--8---3--3--5--5--0--0--5--5--0--0--5--5--0--0--5--5--0--0--5--5--5--0--
E|--0--0--0--8--8---8--8---3--3--5--5--0--0--5--5--0--0--5--5--0--0--5--5--0--0--5--5--5--0--
http://www.guitartabcreator.com
Guitar Tab Creator is intended to store guitar tab created through the tool. It currently does not support in-line text editing. Any text you place in here will be lost. If you need to comment on your tab, please use the "Tab Notes" section located below.