Candle Melts

(/) Slide Up  (\) Slide Down  (h) Hammer On  (p) Pull Off  (b) Bend (r) Release (v) Vibrato
E|-----------------------------------------------------------
B|-------------------------------0---------------------------
G|-----------------2----------0------------------2-----------
D|--------------2-----2--2h3------------2-----2-----2--3-----
A|--------2--0-----------------------------0-----------------
E|--0--3-----------------------------------------------------



E|--------------------------------------------------------
B|-----------------------------1--------------------------
G|-----------------2--------2-----2--------2--------------
D|--------------2-----2--3--------------2-----3--2--------
A|--------2--0-----------------------3--------------3--2--
E|--0--3--------------------------------------------------



E|----------------------------------------------------
B|----------------------0-----------1-----------0-----
G|--------2----------2-----2-----2-----------3-----0--
D|-----2-----2--2h3-----------2--------2--0-----------
A|--0-------------------------------------------------
E|----------------------------------------------------



E|--------------------------------------------0--------------
B|--------------------1--------------------1-----0-----------
G|--------2--------2-----2--------2--------------------------
D|-----2-----2--3--------------2-----3--2--------------------
A|--0-----------------------3--------------------------------
E|-----------------------------------------------------------



E|--------------------------------------------------
B|--------------------0-----------1-----------0-----
G|--------2--------2-----2-----2-----------3-----0--
D|-----2-----2--3-----------2--------2--0-----------
A|--0-----------------------------------------------
E|--------------------------------------------------



E|--------------------------------------------0-----
B|--------------------1--------------------1-----0--
G|--------2--------2-----2--------2-----------------
D|-----2-----2--3--------------2-----3--2-----------
A|--0-----------------------3-----------------------
E|--------------------------------------------------



E|--------------------------------------------------
B|--------------------0-----------1-----------0-----
G|--------2--------2-----2-----2-----------1-----0--
D|-----2-----2--3-----------2--------2--0-----------
A|--0-----------------------------------------------
E|--------------------------------------------------



E|----------------------------------------------------
B|----------------------0-----------1-----------0-----
G|--------2----------2-----2-----2-----------3-----0--
D|-----2-----2--2h3-----------2--------2--0-----------
A|--0-------------------------------------------------
E|----------------------------------------------------



E|--
B|--
G|--
D|--
A|--
E|--



E|--------------------------------------------0-----
B|--------------------1--------------------1-----0--
G|--------2--------2-----2--------2-----------------
D|-----2-----2--3--------------2-----3--2-----------
A|--0-----------------------3-----------------------
E|--------------------------------------------------



E|--------------------------------------------------
B|--------------------0-----------1-----------0-----
G|--------2--------2-----2-----2-----------1-----0--
D|-----2-----2--3-----------2--------2--0-----------
A|--0-----------------------------------------------
E|--------------------------------------------------



E|--------------------------------------------0-----
B|--------------------1--------------------1-----0--
G|--------2--------2-----2--------2-----------------
D|-----2-----2--3--------------2-----3--2-----------
A|--0-----------------------3-----------------------
E|--------------------------------------------------



E|--------------------------------------------------
B|--------------------0-----------1-----------0-----
G|--------2--------2-----2-----2-----------1-----0--
D|-----2-----2--3-----------2--------2--0-----------
A|--0-----------------------------------------------
E|--------------------------------------------------



E|--------------------------------------------0-----
B|--------------------1--------------------1-----0--
G|--------2--------2-----2--------2-----------------
D|-----2-----2--3--------------2-----3--2-----------
A|--0-----------------------3-----------------------
E|--------------------------------------------------
http://www.guitartabcreator.com
Guitar Tab Creator is intended to store guitar tab created through the tool. It currently does not support in-line text editing. Any text you place in here will be lost. If you need to comment on your tab, please use the "Tab Notes" section located below.