Candle Climax

(/) Slide Up  (\) Slide Down  (h) Hammer On  (p) Pull Off  (b) Bend (r) Release (v) Vibrato


E|----0----0---------0----0----0----0----3----3----3----3----3------------------0----0----
B|----1----1---------1----1----1----1----0----0----0----0----0------------------1----1----
G|----2----2----0----2----2----2----2----0----0----0----0----0------------------2----2----
D|----2----2----0----3----3----3----3----0----0----0----0----0----2p0-----------2----2----
A|----0----0----0------------------------0----0----0----0----0-----------3p0----0----0----
E|---------------------------------------3----3----3----3----3----------------------------



E|------------------------------------------------------0----0----3----
B|------------------------------------------------------1----1----0----
G|------------------------------------------------------2----0----0----
D|----5----5----5----5----5---------5---------5---------2----2----0----
A|----2----3----3----5----5----5----5----5----5----5----0----3----0----
E|-------------------3----3----0----3----0----3----0--------------3----



E|----0----0----------------------------------0---------------------------------------
B|----1----1----------------------------------1---------------------------------------
G|----2----2----5----5------------------------2---------------------------------------
D|----2----2----5----5----5----5----2----2----2----3--------------3---------3----5----
A|----0----0----3----3----5----5----2----2----0----3--------------3---------3----5----
E|------------------------3----3----0----0---------1----0----0----1----0----1----3----



E|---------------------------------------0----0---------0--------------0--------------
B|---------------------------------------1----1----0----1----1----0----1----5----6----
G|---------------------------------------2----2----0----2----0----0----2----5----5----
D|----5----5---------5---------5---------2----3----0----3----2----0----2----3----3----
A|----5----5----5----5----5----5----5----0---------0-------------------0--------------
E|----3----3----0----3----0----0----0--------------3----------------------------------



E|----3-------------------0----1----3----0----0---------0----3----------------------------------
B|----0-------------------1----2----0----2----2----0----1----0----------------------------------
G|----0-------------------2----3----0----3----0----0----2----0----------------------------------
D|----0----0----2----0----2----4----0----4----0----0----2----0----3----3---------3----3---------
A|----0-------------------0---------0-------------------0----0----3----3---------3----3---------
E|----3-----------------------------3------------------------3----1----1----0----1----1----0----
http://www.guitartabcreator.com
Guitar Tab Creator is intended to store guitar tab created through the tool. It currently does not support in-line text editing. Any text you place in here will be lost. If you need to comment on your tab, please use the "Tab Notes" section located below.