Nocturne Op 9 No 2

(/) Slide Up  (\) Slide Down  (h) Hammer On  (p) Pull Off  (b) Bend (r) Release (v) Vibrato



E|-------------------------------------------------------4--------------------------------9--
B|-----9-------------------7--9--7----------5-------0-----------6----------------------------
G|-------------------------5-------------4----------------------4----6------7--6--5--6-------
D|----------6--9-----------7----------6----------6--------------6----------------------------
A|------------------------------------------6------------4--------------------------------8--
E|--0--0----------0--------------0-----------------------------------------------------------


E|---------------------
B|----0-----9--12--12--
G|---------------------
D|----11---------------
A|-----------------9---
E|---------------------
http://www.guitartabcreator.com
Guitar Tab Creator is intended to store guitar tab created through the tool. It currently does not support in-line text editing. Any text you place in here will be lost. If you need to comment on your tab, please use the "Tab Notes" section located below.