Guitar intro idea

(/) Slide Up  (\) Slide Down  (h) Hammer On  (p) Pull Off  (b) Bend (r) Release (v) Vibrato

guitar 1
E|--------------------------------------
B|--------------------------------------
G|--------------------------------------
D|-----------5-----------------5--------
A|-----2-----------2-----2-----------2--
E|--0-----0-----0-----0-----0-----0-----



E|-------------------------------------
B|-------------------------------------
G|-------------------------------------
D|-----------5-----------------7-------
A|-----2-----------2-----4-----------4/
E|--3-----3-----3-----5-----5-----5----



guitar 2
E|------------------------------------------
B|------------------------------------------
G|------------------------------------------
D|--------------17----------------------17--
A|------14--------------14------14----------
E|--12------12------12------12------12------



E|--------------------------------------------------
B|--------------------------------------------------
G|--------------------------------------------------
D|--------------17----------------------19----------
A|------14--------------14------16--------------16--
E|--15------15------15------17------17------17------
http://www.guitartabcreator.com
Guitar Tab Creator is intended to store guitar tab created through the tool. It currently does not support in-line text editing. Any text you place in here will be lost. If you need to comment on your tab, please use the "Tab Notes" section located below.