Song 1 Riff

(/) Slide Up  (\) Slide Down  (h) Hammer On  (p) Pull Off  (b) Bend (r) Release (v) Vibrato


E|-------------------------------|----------------------------
B|-------------------------------|----------------------------
G|-------------------------------|----------------------------
D|-------------------------------|----------------------------
A|--------------5--5-5-5-7-7-7-7-|------------5-7--9-7-5-0--1-
E|-7--7-7-5-6-7------------------|-7--7-7-5-7-----------------



E|----------------------------|-------------------------
B|----------------------------|-------------------------
G|----------------------------|-------------------------
D|----------------------------|-------------------------
A|--------5-------------------|--------5-----5-5-7--9-7-
E|-7--7-7---7r7-5--5-7--7-7\9-|-7--7-7---7r7------------

http://www.guitartabcreator.com
Guitar Tab Creator is intended to store guitar tab created through the tool. It currently does not support in-line text editing. Any text you place in here will be lost. If you need to comment on your tab, please use the "Tab Notes" section located below.