Project 2

(/) Slide Up  (\) Slide Down  (h) Hammer On  (p) Pull Off  (b) Bend (r) Release (v) Vibrato


E|--------------------------------------------
B|--------------------------------------------
G|--------------------------------------------
D|--------------------------------------------
A|--------------------------------------------
E|--10p9p7--10p9p7--10p9p7--10p9p7--10p7--10--



E|--------------------------------------------------------------------------------------
B|--------------------------------------------------------------------------------------
G|--------------------------------------------------------------------------------------
D|----------------------------------------------------------------------------9------9--
A|-------------------------------------------------------8------8--11--8--11-----11-----
E|--10p9p7--10p9p7--10p9p7--10p9p7--10p7--10--10--7--10-----10--------------------------



E|------------------------------------
B|------------------------------------
G|-------------10------10--12b12r10v--
D|--12--9--12------12-----------------
A|------------------------------------
E|------------------------------------
http://www.guitartabcreator.com
Guitar Tab Creator is intended to store guitar tab created through the tool. It currently does not support in-line text editing. Any text you place in here will be lost. If you need to comment on your tab, please use the "Tab Notes" section located below.