Lindsey

(/) Slide Up  (\) Slide Down  (h) Hammer On  (p) Pull Off  (b) Bend (r) Release (v) Vibrato


E|--------------------------------------------------
B|-----------5-----------3-----------5-----------3--
G|--------0-----------0-----------0-----------0-----
D|-----4-----------4-----------4-----------4--------
A|--5-----------5-----------5-----------5-----------
E|--------------------------------------------------



E|-----------0-----------0-----------0-----------0--
B|--------3-----------3-----------5-----------5-----
G|-----0-----------0-----------0-----------0--------
D|--5-----------5-----------7-----------7-----------
A|--------------------------------------------------
E|--------------------------------------------------
http://www.guitartabcreator.com
Guitar Tab Creator is intended to store guitar tab created through the tool. It currently does not support in-line text editing. Any text you place in here will be lost. If you need to comment on your tab, please use the "Tab Notes" section located below.