finger picking

(/) Slide Up  (\) Slide Down  (h) Hammer On  (p) Pull Off  (b) Bend (r) Release (v) Vibrato
E|--------0-----------------------0--------------------------0--------------------------0--------------
B|--2--------------2--------1--------------1-----------0--------------0-----------0-----------0--------
G|-----2-----2-----------2-----2-----2-----------2--------1-----1-----------1-----------------------1--
D|--------2-----------2-----------2-----------2--------------2-----------2-----------2-----------2-----
A|--0-----------0-----------0-----------0--------------2-----------2-----------2-----------2-----------
E|-----------------------------------------------------------------------------------------------------



E|-------2-----------------------3-----------------------0-----------------------0--------------------
B|--2h3-----------3--------3--------------3--------2--------------2--------0--------------0-----------
G|----------4-----------4-----4-----4-----------4-----2-----2-----------2-----1-----1-----------1-----
D|-------4-----------4-----------5-----------5-----------2-----------2-----------2-----------2-----2--
A|--2----------2-----------------------------------0-----------0-----------2-----------2--------------
E|-------------------------3-----------3--------------------------------------------------------------
http://www.guitartabcreator.com
Guitar Tab Creator is intended to store guitar tab created through the tool. It currently does not support in-line text editing. Any text you place in here will be lost. If you need to comment on your tab, please use the "Tab Notes" section located below.