You and Me-Solo

(/) Slide Up  (\) Slide Down  (h) Hammer On  (p) Pull Off  (b) Bend (r) Release (v) Vibrato


E|--------------------------------------------------------------------------
B|--10--10------------------------------------------13----------15----------
G|----------12--10----------10--12--14--12--12--14------14--14------14--14--
D|------------------12--12--------------------------------------------------
A|--------------------------------------------------------------------------
E|--------------------------------------------------------------------------



E|--12------------------------------
B|------15--------------13--15--13--
G|----------12--14--12--------------
D|----------------------------------
A|----------------------------------
E|----------------------------------



E|------------------------------------------------------------------------------
B|--12--13--12----------12------------------------------------------------------
G|--------------14--14------14--12------12--14--12----------12------------------
D|----------------------------------14--------------14--14------14--12----------
A|----------------------------------------------------------------------14--15--
E|------------------------------------------------------------------------------



E|----------------------------------------------------------12------
B|------------------------------13--12----------12--13--15----------
G|------------------12--14--14----------12--14------------------14--
D|------14--15--15--------------------------------------------------
A|--15--------------------------------------------------------------
E|------------------------------------------------------------------
http://www.guitartabcreator.com
Guitar Tab Creator is intended to store guitar tab created through the tool. It currently does not support in-line text editing. Any text you place in here will be lost. If you need to comment on your tab, please use the "Tab Notes" section located below.