Take a walk-Solo

(/) Slide Up  (\) Slide Down  (h) Hammer On  (p) Pull Off  (b) Bend (r) Release (v) Vibrato


E|----------------------------------------------------------12--------------------------
B|------------------12--------------------------13--12----------15--13--12--------------
G|------12--14--12------14--12------12--14--12----------14------------------14--12--11--
D|--14--------------------------14------------------------------------------------------
A|--------------------------------------------------------------------------------------
E|--------------------------------------------------------------------------------------



E|--------------------------------------------------------------12--14--15--15--
B|--------------------------------------------------12--13--15------------------
G|--------------------------------------11--12--14------------------------------
D|--------------------------10--12--14------------------------------------------
A|--------------10--12--14------------------------------------------------------
E|--10--12--14------------------------------------------------------------------



E|--15--------------------------------------------------------------
B|------12--15--15--17--12--15--15--15--12--13--13--15--12--12--13--
G|------------------------------------------------------------------
D|------------------------------------------------------------------
A|------------------------------------------------------------------
E|------------------------------------------------------------------



E|----------------------------------------------------
B|------15--------------------------------------------
G|--14------14------14--------------------------------
D|--------------12------12----------------------------
A|--------------------------14--15--14--12--10--9--7--
E|----------------------------------------------------



E|------------------------------------------------------------------------------
B|------------------------------------------------------------------------------
G|------------------------------------------------------------------------------
D|------------------------------------------------------------------------------
A|--7--7--7--7--9--9--9--10--10--10--10--12--12--12--10--10--10--9--9--9--9--9--
E|------------------------------------------------------------------------------
http://www.guitartabcreator.com
Guitar Tab Creator is intended to store guitar tab created through the tool. It currently does not support in-line text editing. Any text you place in here will be lost. If you need to comment on your tab, please use the "Tab Notes" section located below.