Chris' lick 1

(/) Slide Up  (\) Slide Down  (h) Hammer On  (p) Pull Off  (b) Bend (r) Release (v) Vibrato

E|-----------------------------------------------------------------------5--
B|--------------------------------------------------------5-----5--6--8-----
G|-----------------------------------------4-----4--5--7-----7--------------
D|--------------------------3-----3--5--7-----7-----------------------------
A|-----------3-----3--5--7-----7--------------------------------------------
E|--3--5--7-----7-----------------------------------------------------------



E|--4--5--8--4--5-----------------
B|-----------------4--5-----------
G|-----------------------4--5-----
D|-----------------------------6--
A|--------------------------------
E|--------------------------------



E|--------------3--8--8--3--------------------------5--10--10--5--------------
B|-----------5--------------5--------------------7----------------7-----------
G|--------5--------------------5--------------7----------------------7--------
D|-----5--------------------------5--------7----------------------------7-----
A|--3--------------------------------3--5----------------------------------5--
E|----------------------------------------------------------------------------



E|--------------7--12--12--7-----------------
B|-----------9----------------9--------------
G|--------9----------------------9-----------
D|-----9----------------------------9--------
A|--7----------------------------------7-----
E|----------------------------------------0--



E|--
B|--
G|--
D|--
A|--
E|--
http://www.guitartabcreator.com
Guitar Tab Creator is intended to store guitar tab created through the tool. It currently does not support in-line text editing. Any text you place in here will be lost. If you need to comment on your tab, please use the "Tab Notes" section located below.