Invert Christ (Bass Lines)

(/) Slide Up  (\) Slide Down  (h) Hammer On  (p) Pull Off  (b) Bend (r) Release (v) Vibrato


E|-----------------------|-----------------------|-----------------------|-----------------------|--
B|-----------------------|-----------------------|-----------------------|-----------------------|--
G|-----------------------|-----------------------|-----------------------|-----------------------|--
D|--3/5--0--3/5--0--3/5--|--3/5--0--3/5--0--3/5--|--3/5--0--3/5--0--3/5--|--3/5--0--3/5--0--3/5--|--
A|-----------------------|-----------------------|-----------------------|-----------------------|--
E|-----------------------|-----------------------|-----------------------|-----------------------|--



E|-----------------------------------------------------------------------
B|-----------------------------------------------------------------------
G|-----------------------6--6--6--6--6--6--6--6--5--5--5--5--5--5--5--5--
D|--3/5--0--3/5--0--3/5--------------------------------------------------
A|-----------------------------------------------------------------------
E|-----------------------------------------------------------------------



E|-----------------------------------------------------------------------
B|-----------------------------------------------------------------------
G|-----------------------4--4--4--4--4--4--4--4--3--3--3--3--3--3--3--3--
D|--3/5--0--3/5--0--3/5--------------------------------------------------
A|-----------------------------------------------------------------------
E|-----------------------------------------------------------------------



E|--------------------------------------------------------------------------------------6-----
B|--------------------------------------------------------------------------------------6-----
G|--------------------------------------------------------------------------------------4-----
D|--0--0--1--1--3--3--1--1--3--3--4--4--3--3--1--1--0--0--1--1--3--3--1--1--0--0--1--1--------
A|--------------------------------------------------------------------------------------------
E|--------------------------------------------------------------------------------------------



E|--------------------------------------------------------------------------------------7--
B|--------------------------------------------------------------------------------------7--
G|--------------------------------------------------------------------------------------5--
D|--0--0--1--1--3--3--1--1--3--3--4--4--3--3--1--1--0--0--1--1--3--3--1--1--0--0--1--1-----
A|-----------------------------------------------------------------------------------------
E|-----------------------------------------------------------------------------------------



E|-----|--------------------------------------------------|--
B|-----|--------------------------------------------------|--
G|-----|-----5-----------------------5--------------------|--
D|--0--|--0-----0--6--0--5--0--3--0-----0--6--0--5--0--1--|--
A|-----|--------------------------------------------------|--
E|-----|--------------------------------------------------|--



E|--------------------------|--------------------------|--------------------------------------------------------
B|--------1--------1--------|--------1--------1--------|--------------------7--------------------6--------------
G|--------1--------1--------|--------1--------1--------|-----------------5--------------------4-----------------
D|--0--0--0--0--0--0--0--4--|--0--0--0--0--0--0--0--4--|--0--0--0--0--4--------0--0--0--0--3--------0--0--0--0--
A|--------------------------|--------------------------|--------------------------------------------------------
E|--------------------------|--------------------------|--------------------------------------------------------



E|-----------------------------------------------------------------------------------------------------------------------------------------
B|-----------------------------------------------------------------------------------------------------------------------------------------
G|-----------------------------------------------------------------------------------------------------------------------------------------
D|--0--0--0--0--0--0--0--0--4--4--4--0--0--0--0--0--0--0--0--3--3--3--0--0--0--0--0--0--0--0--4--4--4--0--0--0--0--0--0--0--0--3--3--3--0--
A|-----------------------------------------------------------------------------------------------------------------------------------------
E|-----------------------------------------------------------------------------------------------------------------------------------------
http://www.guitartabcreator.com
Guitar Tab Creator is intended to store guitar tab created through the tool. It currently does not support in-line text editing. Any text you place in here will be lost. If you need to comment on your tab, please use the "Tab Notes" section located below.