DOOM OATH 3

(/) Slide Up  (\) Slide Down  (h) Hammer On  (p) Pull Off  (b) Bend (r) Release (v) Vibrato


E|-----------------------------------------------
B|-----------------------------------------------
G|-----------------------------------------------
D|-----------------------------------------------
A|-----4--3--------------4--4--4--4--------------
E|--1--------1--1--4--1--------------6--6--4--4--



E|-----------------------------------------------
B|-----------------------------------------------
G|-----------------------------------------------
D|-----------------------------------------------
A|-----4--3--------------------------------------
E|--1--------1--1--4--1--1--1--1--1--1--1--1--1--



E|---------------------------------------------
B|---------------------------------------------
G|---------------------------------------------
D|---------------------------------------------
A|---------------------------------------------
E|--0--4--5--0--5--8--0--8--10--0--10--11--12--



E|------------------------------------------------
B|------------------------------------------------
G|------------------------------------------------
D|------------------------------------------------
A|------------------------------------------------
E|--0--4--5--0--5--8--0--8--10--8--7--8--7--5--3--



E|----------------------------------------------------------------------------------
B|----------------------------------------------------------------------------------
G|----------------------------------------------------------------------------------
D|----------------------------------------------------------------------------------
A|-----4--3-----4--3-----4--3-----4--3--6--6-----4--3-----4--3-----4--3-----4--3----
E|--0--------0--------0--------0--------------0--------0--------0--------0--------4b



E|----------------------------------------------------------------------------------
B|----------------------------------------------------------------------------------
G|----------------------------------------------------------------------------------
D|----------------------------------------------------------------------------------
A|--4--3-----------4--3-----------4--3--------4--3--------4--3--------4--3----------
E|--------0--0--4--------0--0--4--------0--0--------0--0--------0--0--------0--0--4b
http://www.guitartabcreator.com
Guitar Tab Creator is intended to store guitar tab created through the tool. It currently does not support in-line text editing. Any text you place in here will be lost. If you need to comment on your tab, please use the "Tab Notes" section located below.