#1

(/) Slide Up  (\) Slide Down  (h) Hammer On  (p) Pull Off  (b) Bend (r) Release (v) Vibrato

E|-----------------------------------------------------------------------------------------------
B|-----------------------------------------------------------------------------------------------
G|-----------------------------------------------------------------------------------------------
D|-----0-----0-----0-----0-----0-----0-----0-----0-----0--------------0-----0-----0-----0--------
A|--0-----0-----0-----0-----3-----3-----3-----2-----2-----3--2--0--0-----0-----3-----3-----3-----
E|-----------------------------------------------------------------------------------------------



E|-------------------------------------------------------------------
B|-------------------------------------------------------------------
G|-----------0-----------0-----------------------------12p10---------
D|-----0-----------0-----------0------0------0------0---------12p10--
A|--3-----3-----5-----5-----5-----12-----12-----12-------------------
E|-------------------------------------------------------------------



E|--------------------------------------------------------
B|--------------------------------------------------------
G|--------------------------------------------------------
D|--12--11--9--12--11--9--9--7--9--7--9--9--12--12--9--9--
A|--10--9---7--10--9---7--7--5--7--5--7--7--10--10--7--7--
E|--10--9---7--10--9---7--7--5--7--5--7--7--10--10--7--7--



E|-------------------------------------------------15--
B|-------------------------------------------------18--
G|--------------15------15------17b17p15------15v------
D|--12--11--17------17------17------------17-----------
A|--10--9---0------------------------------------------
E|--10--9---0------------------------------------------
http://www.guitartabcreator.com
Guitar Tab Creator is intended to store guitar tab created through the tool. It currently does not support in-line text editing. Any text you place in here will be lost. If you need to comment on your tab, please use the "Tab Notes" section located below.