E Blues

(/) Slide Up  (\) Slide Down  (h) Hammer On  (p) Pull Off  (b) Bend (r) Release (v) Vibrato

E|---------------------------------------------------------------------------------------------
B|-----------------------------------------------------------3--0------------------------------
G|-------------------------------12-------------12--14v------------2---------------------------
D|------12--12------12--14v----------14--12h14--------------------------12-------------12--14--
A|--14----------14----------------------------------------------------------14--12h14----------
E|---------------------------------------------------------------------------------------------



E|--------------------------12--12--15--12--12--15-------------------------------------------
B|--12--12--15--12--12--15--------------------------12--12--15--12--12--15-------------------
G|--------------------------------------------------------------------------14--14--12-------
D|--------------------------------------------------------------------------------------14v--
A|-------------------------------------------------------------------------------------------
E|-------------------------------------------------------------------------------------------



E|------------------------------------------------------------------------------------------------
B|-----------------------------------------------------12--12--12--12--12--12--12--14/15--14--12--
G|------------------------------------------------------------------------------------------------
D|-------0-----------12---------12---------14--12-------------------------------------------------
A|--1h2-------12h14------12h14------12h14---------------------------------------------------------
E|------------------------------------------------------------------------------------------------



E|------------------------------------------------------------------------------------------------
B|------------------------------------------------------------------------------------------------
G|------------------------------------------------------------------------------------------------
D|------------------------------------------------------------------------------------------------
A|------------------------------------------------------------------------------------------------
E|------------------------------------------------------------------------------------------------
http://www.guitartabcreator.com
Guitar Tab Creator is intended to store guitar tab created through the tool. It currently does not support in-line text editing. Any text you place in here will be lost. If you need to comment on your tab, please use the "Tab Notes" section located below.