Blues #2

(/) Slide Up  (\) Slide Down  (h) Hammer On  (p) Pull Off  (b) Bend (r) Release (v) Vibrato


E|-----------------------------------------------------------------------------------------------
B|-----------------------------------------------------------------------------------------------
G|-------------------------------12-------------12--14-------------------------------------------
D|------12--12------12--14v----------14--12h14------------------------------------12---------14--
A|--14----------14------------------------------------------------------------14------13h14------
E|------------------------------------------------------------15--12--12-------------------------



E|------------------------------12-----------------------------------------------
B|--15v--v--v--v----12--15--15---------------------------------------------------
G|----------------------------------14----12-------------14-------------12-------
D|--------------------------------------------14--12h14----------12h14-----------
A|-------------------------------------------------------------------------------
E|-------------------------------------------------------------------------------



E|-------------------------------------------------
B|-------------------------------------------------
G|----------------------------------14h15--14--12--
D|--14------14--14--14--14--14--14-----------------
A|-------------------------------------------------
E|-------------------------------------------------
http://www.guitartabcreator.com
Guitar Tab Creator is intended to store guitar tab created through the tool. It currently does not support in-line text editing. Any text you place in here will be lost. If you need to comment on your tab, please use the "Tab Notes" section located below.