12 bar E Blues

(/) Slide Up  (\) Slide Down  (h) Hammer On  (p) Pull Off  (b) Bend (r) Release (v) Vibrato

E|-------------------------------------------------------------------------------------------
B|-------------------------------------------------------------------------------------------
G|-------------------------------12-------------12--14v--------------------12--12h14--15-----
D|------12--12------12--14v----------14--12h14-----------------------12----------------------
A|--14----------14-------------------------------------------12--14--------------------------
E|-------------------------------------------------------------------------------------------



E|------------------------------------------------------------------------------------
B|--------------------12--------------------------------------------------------------
G|--12h14--15--12h14-------------------------------------------12---------12----------
D|------------------------14------------------------12--12h14------12h14--------------
A|------------------------------------12--12--15------------------------------12v-----
E|--------------------------------15--------------------------------------------------



E|--------------------------------------------------------------
B|---------------------------------15--12--12-------------------
G|---------------------12----------------------14/15--14--12----
D|---------12--12--14------14-----------------------------------
A|--13h14-------------------------------------------------------
E|--------------------------------------------------------------



E|-------------------------------------------------------------
B|-------------------------------------------------------------
G|--7--7--7--7--7--7--7--9/10--9--7v--------12--12--14---------
D|--------------------------------------14---------------------
A|-------------------------------------------------------------
E|-------------------------------------------------------------



E|--------------------------------------------------
B|--------------------------------------------------
G|------------------------------------------12------
D|----------------------------------12--14------14--
A|--12--12h14--12h14--12h14--12h14------------------
E|--------------------------------------------------
http://www.guitartabcreator.com
Guitar Tab Creator is intended to store guitar tab created through the tool. It currently does not support in-line text editing. Any text you place in here will be lost. If you need to comment on your tab, please use the "Tab Notes" section located below.