Sideasideb-10 Speed

(/) Slide Up  (\) Slide Down  (h) Hammer On  (p) Pull Off  (b) Bend (r) Release (v) Vibrato

E|-----------------------
B|-----------------------
G|-----------------------
D|-3-3-3-3-3-3-3-3-3-3-3-
A|-4-4-4-4-4-4-4-4-4-4-4-
E|---------6-6-6-6-6-6-6-



E|------------------------------------------------------------------------
B|----------0-------------------------------------------------------------
G|---------------------------------------0-----2--0-----------------------
D|-----3p2-----2-----2-----2h3--2--0--------------------3--3-----3--2--0--
A|------------------------------------1-----1--------1--------1-----------
E|--3-------------3-----3-------------------------------------------------



E|----------------------------------
B|-----------------------12-12-12---
G|--3-3-3-3-3-3-10-10-10-10-10-10---
D|--0-0-0-0-0-0-9--9--9--9--9--9----
A|--1-1-1-1-1-1---------------------
E|----------------------------------



E|---------------0--
B|---------------0--
G|-9-8-6-7-11-12-11-
D|-8-7-5-6-10-11-10-
A|------------------
E|------------------



E|--x----x---------x--x----------------------------------------------------
B|--x----x---------x--x----------------------------------------------------
G|--x----x------6--x--x--6--6--6----7--7--0--0--0--0--0--0--0--0-----------
D|--x----x------x--x--x--x--x--x----x--x--4--4--4--4--2--2--2--0-----------
A|--x----x------4--x--x--4--4--4----5--5-----------------------------------
E|--x----x---------x--x----------------------------------------------------
http://www.guitartabcreator.com
Guitar Tab Creator is intended to store guitar tab created through the tool. It currently does not support in-line text editing. Any text you place in here will be lost. If you need to comment on your tab, please use the "Tab Notes" section located below.