Remember

(/) Slide Up  (\) Slide Down  (h) Hammer On  (p) Pull Off  (b) Bend (r) Release (v) Vibrato


E|--------------------------------------------------
B|--------------------------------------------------
G|--------4-----------4-----------0-----------0-----
D|-----6-----6-----6-----6-----6-----6-----6-----6--
A|--7-----------7-----------0-----------0-----------
E|--------------------------------------------------



E|------------
B|------------
G|--6---------
D|--6--7--10--
A|--4--7--10--
E|-----5--8---



E|----------------
B|----------------
G|----------------
D|--12--10--5--7--
A|--12--10--5--7--
E|--10--8---3--5--
http://www.guitartabcreator.com
Guitar Tab Creator is intended to store guitar tab created through the tool. It currently does not support in-line text editing. Any text you place in here will be lost. If you need to comment on your tab, please use the "Tab Notes" section located below.