When Will I Be Loved..E..Solo..Linda Ronstadt

(/) Slide Up  (\) Slide Down  (h) Hammer On  (p) Pull Off  (b) Bend (r) Release (v) Vibrato
E|-------------------------------------------|----------------------------------7--|--
B|--12---------12---------12---------12--14--|--12--14--12----------------7--9-----|--
G|------13h14------13h14------13h14----------|--------------14--13--14\9-----------|--
D|-------------------------------------------|-------------------------------------|--
A|-------------------------------------------|-------------------------------------|--
E|-------------------------------------------|-------------------------------------|--



E|--7---------7--7---------|-------9---------11--|-------------------------------------|--
B|-----10b10--------10--9--|---------------------|-------------------------------------|--
G|-------------------------|--9b9-----11b11------|-------9--9-------9--9-------9-------|--
D|-------------------------|---------------------|--8b8--------8b8--------8b8-----8b8--|--
A|-------------------------|---------------------|-------------------------------------|--
E|-------------------------|---------------------|-------------------------------------|--



E|-------------------|--------------------------------------------------------------|--
B|-------------------|----------------------------------------------10--12/17--14v--|--
G|-------------------|-------------------------------9--9h9/13--13------------------|--
D|--8b8--8--7--------|--------6--6----6--7--9--9/11---------------------------------|--
A|-------------9--7--|--7--9--------------------------------------------------------|--
E|-------------------|--------------------------------------------------------------|--
http://www.guitartabcreator.com
Guitar Tab Creator is intended to store guitar tab created through the tool. It currently does not support in-line text editing. Any text you place in here will be lost. If you need to comment on your tab, please use the "Tab Notes" section located below.