When Will I Be Loved..E..Solo..Linda Ronstadt

(/) Slide Up  (\) Slide Down  (h) Hammer On  (p) Pull Off  (b) Bend (r) Release (v) Vibrato
E|-------------------------------------------|----------------------------------7--|--
B|--12---------12---------12---------12--14--|--12--14--12----------------7--9-----|--
G|------13h14------13h14------13h14----------|--------------14--13--14\9-----------|--
D|-------------------------------------------|-------------------------------------|--
A|-------------------------------------------|-------------------------------------|--
E|-------------------------------------------|-------------------------------------|--



E|--7---------7--7---------|-------9---------11--|-------------------------------------|--
B|-----10b10--------10--9--|---------------------|-------------------------------------|--
G|-------------------------|--9b9-----11b11------|-------9--9-------9--9-------9-------|--
D|-------------------------|---------------------|--8b8--------8b8--------8b8-----8b8--|--
A|-------------------------|---------------------|-------------------------------------|--
E|-------------------------|---------------------|-------------------------------------|--



E|----------------|----------------|--------------------------------|------------------------------|--
B|----------9--7--|--7--9--11--11--|--11--12--14--14----------------|------------------------------|--
G|--8b8--7--------|----------------|--------------------11--14--14--|------------------------------|--
D|----------------|----------------|--------------------------------|--11--13--13/14---------------|--
A|----------------|----------------|--------------------------------|-----------------12------14v--|--
E|----------------|----------------|--------------------------------|---------------------12-------|--



E|--------------------|--------------------|--------------------
B|--------------------|--------------------|--------------------
G|--------------------|--------------------|--------------------
D|--9/11--------------|--9/11--------------|--9/11--------------
A|--------9--12--10v--|--------9--12--10v--|--------9--12--10v--
E|--------------------|--------------------|--------------------
http://www.guitartabcreator.com
Guitar Tab Creator is intended to store guitar tab created through the tool. It currently does not support in-line text editing. Any text you place in here will be lost. If you need to comment on your tab, please use the "Tab Notes" section located below.