Tequila Sunrise solo 2

(/) Slide Up  (\) Slide Down  (h) Hammer On  (p) Pull Off  (b) Bend (r) Release (v) Vibrato

Stave 1:

E|--4--4--4--5--7--7--7--9---7--5--4-----------|--4--5--4--3--|--1--0--------------------|--
B|--5--5--5--7--9--9--9--10--9--7--5--4--4--4--|--6--7--6--5--|--3--2--2--------2-----4--|--
G|------------------------------------4--4--4--|--------------|--------2-----2--------4--|--
D|------------------------------------4--4--4--|--------------|--------2--2--------2--4--|--
A|---------------------------------------------|--------------|--------------------------|--
E|---------------------------------------------|--------------|--------------------------|--

Stave 2:

E|------------------------|----------------------|--7h9p7--------------
B|------------------------|--0h2p0---------------|---------9--7\5--7v--
G|-----------------1------|---------2--1---------|---------------------
D|--------1--2--4-----2v--|---------------4--2v--|---------------------
A|--2--4------------------|----------------------|---------------------
E|------------------------|----------------------|---------------------

http://www.guitartabcreator.com
Guitar Tab Creator is intended to store guitar tab created through the tool. It currently does not support in-line text editing. Any text you place in here will be lost. If you need to comment on your tab, please use the "Tab Notes" section located below.