Some Kinda Trouble-Abm

(/) Slide Up  (\) Slide Down  (h) Hammer On  (p) Pull Off  (b) Bend (r) Release (v) Vibrato

Stave 1:

E|---------------------|-----------------|--|----------------------------|--|--
B|---------------------|-----------------|--|----------------------------|--|--
G|---------------------|-----------------|--|---------4--6--7b8v--4------|--|--
D|-------4-------------|--6--6--4--4--6--|--|--4--6v-----------------6v--|--|--
A|--4/6-----6\4--2-----|-----------------|--|----------------------------|--|--
E|------------------4--|-----------------|--|----------------------------|--|--

Stave 2:

E|-------------------------9--11--16v--|---------------------16------16------16------16------16--|--
B|----------------7b8--12--------------|----------5b6--2/16------16------16------16------16------|--
G|-------4--6--8-----------------------|--7b8--4-------------------------------------------------|--
D|--5b6--------------------------------|---------------------------------------------------------|--
A|-------------------------------------|---------------------------------------------------------|--
E|-------------------------------------|---------------------------------------------------------|--

Stave 3:

E|--16\7------|---------------------11------11-------------------------|--
B|--------9v--|----------5b6--2/11------11------11--9--7--4------------|--
G|------------|--7b8--4--------------------------------------6--4------|--
D|------------|----------------------------------------------------6v--|--
A|------------|--------------------------------------------------------|--
E|------------|--------------------------------------------------------|--

http://www.guitartabcreator.com
Guitar Tab Creator is intended to store guitar tab created through the tool. It currently does not support in-line text editing. Any text you place in here will be lost. If you need to comment on your tab, please use the "Tab Notes" section located below.